No Innocent Victim - My Beliefs Text Guitar Tab

Learn the song with the online tablature player
                             My Beliefs - No Innocent Victim

Intro
e|---------------------------------------------------------------------------|
B|---------------------------------------------------------------------------|
G|---------------------------------------------------------------------------|
D|11-0-0-00-0-0-111-11-0-0-00-0-0-111----------------------------------------|
A|11-0-0-00-0-0-111-11-0-0-00-0-0-111----------------------------------------|
D|11-0-0-00-0-0-111-11-0-0-00-0-0-111----------------------------------------|

Verse
e|---------------------------------------------------------------------------|
B|---------------------------------------------------------------------------|
G|---------------------------------------------------------------------------|
D|11-0-0-00-0-0-111-11-0-0-00-0-0-111----------------------------------------|
A|11-0-0-00-0-0-111-11-0-0-00-0-0-111----------------------------------------|
D|11-0-0-00-0-0-111-11-0-0-00-0-0-111----------------------------------------|
  P.M.-------------------------------|

Chorus
e|---------------------------------------------------------------------------|
B|---------------------------------------------------------------------------|
G|---------------------------------------------------------------------------|
D|0-0-5-0-6-0-0-5-0-0-6-0-5-0-3/5-0-0-5-0-6-0-0-5-0-0-6-0-5-0-3/5------------|
A|0-0-5-0-6-0-0-5-0-0-6-0-5-0-3/5-0-0-5-0-6-0-0-5-0-0-6-0-5-0-3/5------------|
D|0-0-5-0-6-0-0-5-0-0-6-0-5-0-3/5-0-0-5-0-6-0-0-5-0-0-6-0-5-0-3/5------------|

Breakdown
e|---------------------------------------------------------------------------|
B|---------------------------------------------------------------------------|
G|---------------------------------------------------------------------------|
D|11-0-0-00-0-0-111-11-0-0-00-0-0-111----------------------------------------|
A|11-0-0-00-0-0-111-11-0-0-00-0-0-111----------------------------------------|
D|11-0-0-00-0-0-111-11-0-0-00-0-0-111----------------------------------------|
  P.M.-------------------------------|

| /  slide up
| \  slide down
| h  hammer-on
| p  pull-off
| ~  vibrato
| +  harmonic
| x  Mute note