No Knife - Riot For Romance Text Guitar Tab

Learn the song with the online tablature player
______________________________________________________

Distortion on

guitar 1(play 2 times then both guitars together 4 times):

-----------------|
-----------------|
---770------770--|
------89-------89|
--X--------X-----|
7\X------7\X ----|

then(0:23):

guitar 1:

-9---------------|-9---------------|-9---------------|-9---------------|
--8--------------|--8--------------|--8--------------|--8----------7\--|
-----7--\--------|-----7-\---------|----7-\----------|----7-\----------|
----7---\--------|----7--\---------|---7--\----------|---7--\----------|
-----------------|-----------------|-----------------|-----------------|
-----------------|----------77\---/|----------77\----|--------77\------|

guitar 2:

-----------------|-------------X---|-----------------|--------------10\-|
----8-7-\--------|----8-7-\----X---|----8-7-\--8—-7-\|----8-7-\----7----|
---7-7--\--------|---7-7--\----X---|---7-7--\---67-7\|---7-7--\---------|
-/9--------------|-/9----------X---|-/9--------------|-/9---------------|
-----------------|-------------X---|-----------------|------------------|
-----------------|-------------X---|-----------------|------------------|
                               *strike strings above nut

chorus
0:55) (play twice)
both guitars:

--7--9--10-------|101010-9-7\------|
-7--7--7---------|-7 7 7-7-7\---7--|
-----------------|-------------7---|
-----------------|-----------------|
-----------------|-----------------|
-----------------|-----------------|

then(1:06):

(loose version of rhythm w/sound effects on first two bars)
guitar 1:

-9---------------|-9---------------|-9---------------|-9---------------|
--8--------------|--8--------------|--8--------------|--8--------------|
-----7--\--------|-----7-\---------|----7-\----------|----7-\----------|
----7---\--------|----7--\---------|---7--\----------|---7--\----------|
-----------------|-----------------|-----------------|-----------------|
-----------------|----------77\----|----------77\----|--------77\------|

guitar 2:

-----------------|-----------------|-----------------|-----------------|
----8-7-\--------|----8-7-\--------|----8-7-\--8—-7-\|----8-7-\--------|
---7-7--\--------|---7-7--\--------|---7-7--\---67-7\|---7-7--\--------|
-/9--------------|-/9--------------|-/9--------------|-/9--------------|
-----------------|-----------------|-----------------|-----------------|
-----------------|-----------------|-----------------|-----------------|

chorus
1:37) (play 3 times)

then (2:00)

-----------------|-----------------|
-----------------|-----------------|
79119-777-666-44-|79119-777-666-4--|
----------------4|-----------------|
57 97-555-444-22-|57 97-555-444-2--|
----------------2|-----------------|

then (2:11) (repeat 4 times)

7-7-777---7-7-777|6-6-666---6-6-666|
8-8-877---8-8-877|7-7-777---7-7-777|
9-9-977---9-9-977|6-6-676---6-6-676|
-----------------|-----------------|
-----------------|-----------------|
-----------------|-----------------|

then (2:43) (very fast pick)

10---9---10------|9--------10------|10---9---10------|9--------10------|
-----------------|-----------------|-----------------|-----------------|
-----------------|-----------------|-----------------|-----------------|
-----------------|-----------------|-----------------|-----------------|
-----------------|-----------------|-----------------|-----------------|
-----------------|-----------------|-----------------|-----------------|

then (3:10)

both guitars(play 6 times):

-----------------|-----------------|
-----------------|-----------------|
---770------770--|-----------------|
------89-------89|-----------------|
--X--------X-----|-----------------|
7\X------7\X ----|7\---------------|