No-Man - All That You Are Text Guitar Tab

Learn song with the online tabulature player
-------------------------------------------------------------------------------
                             NO-MAN - All That You Are
-------------------------------------------------------------------------------
Tabbed by: szymi

Tuning: Standard

The whole song is played like this:

    C          Em           Am          F
e|---------------------------------------------------|
B|--------1-----------0-----------1-----------1------|
G|------0---0-------0---0-------2---2-------2---2----|
D|----2-------2---2-------2---2-------2---3-------3--|
A|--3-----------2-----------0-----------3------------|
E|---------------------------------------------------|

So if you want to play it acoustic, play those chords over the chorus or whole song as well.