No-Man - Wherever There Is Light Text Guitar Tab

Learn song with the online tabulature player
Artist: No-Man
Song: Wherever there is light
Album: Schoolyard Ghosts


Standard Tuning - Low to High (E A D G B e)



Verse & Chorus:


------7---7---7-------7---7---7---------7---7---7--------------------------|
--------------------------------------------------------10---10---10-------|
----9---9---9---9---8---8---8---8/9---9---9---9---9---9----9----9----9-----|
---------------------------------------------------------------------------|
--7---------------6---------------------------------0----------------------|
------------------------------------9--------------------------------------|



Outro: 


----------------------------------------------------------------------------|
----------------------------------------------------------------------------|
-------9---9---9-------8---8---8-8h9-----9---9---9-------9---9---9----------|
-----9---9---9---9---9---9---9---------9---9---9---9---9---9---9---9--------|
---7---------------6---------------------------------0----------------------|
-------------------------------------9--------------------------------------|
         (Walk in and out of rooms...)

----------------------------------|
----------------------------------|
-------9--------------------------|
-----9---9------------------------|
---7---------7~-------------------|
----------------------------------|



Lyrics:

Jane passes through the crowd,
outside the mercury lounge
She loves the city sounds
She feels that she's been found

Wherever there is light,
she follows

Wherever there is light, 
she follows


The bats are out again,
kids shout in Summer rain -
for real, imagined, shame,
For things they cannot name
She thinks of all their bright
tomorrows

Wherever there is light,
she follows.


Walk in and out of rooms
Fall in and out, in and out of love 

Walk in and out of rooms
Fall in and out, in and out of love 



______________


Best regards, 

Per