No Mayers 50 - On My Own Text Guitar Tab

Learn song with the online tabulature player
On My Own

Intro
Riff 1
  H	    F#II      G#	 E       F#
|--------------------|---------------------|
|--------------------|---------------------|
|--------------------|---------------------|
|-4-4-XX-X--4-4-XX-X-|---------------------|
|-2-2-XX-X--1-1-XX-X-|-6-6-XX-X--2--2--2-4-|
|--------------------|-4-4-XX-X--0--0--0-2-|


Verse (Riff 2)
 H				F#II				  G#
|----------------|-----------------|---------------|-----------------|
|----------------|-----------------|---------------|-----------------|
|----------------|-----------------|---------------|-----------------|
|-4--------------|---------------4-|---------------|-----------------|
|-2--2-2-2-2-2-2-|-2-2-2-2-2-4-2-1-|---1-1-1-1-1-1-|-1-1-1-1-1-2-1-6-|
|----------------|-----------------|---------------|---------------4-|
     |--------P.M.--------|	       |--------P.M.--------|

    G#				F#
|---------------|-----------------|-----------------|-----------------|
|---------------|-----------------|-----------------|-----------------|
|---------------|-----------------|-----------------|-----------------|
|---------------|-----------------|-----------------|-----------------|
|---------------|---------------4-|-4-4-4-4-4-4-4-4-|-4-4-4-4-4-4-4-4-|
|---4-4-4-4-4-4-|-4-4-4-4-4-6-4-2-|-2-2-2-2-2-2-2-2-|-2-2-2-2-2-2-2-2-|
    |--------P.M.--------|

Verse
H	F#II	  G#
There I go on my own
	F#
Been to places I have never been before
H	F#II	  G#
Knowing me, knowing you
					   E
Feeling like there's only nothing left to do
	    F#
Hopefully again I will hear you say


Pre Chorus
|---------------------|
|---------------------|
|-8-8--6-6--4-4--6-6--|
|---------------------|
|-6-6--4-4--2-2--4-4--|
|---------------------|

H	 F#II	      G#m	    F#		E	 F#	
That you knew it all before, though did it once again, again ....

Chorus
H		   F#II	  		G#
When the lights go down and you're not around
		    F#  F#		F#  F#	     E
It's hard for me to be      when you're not     with me
		  F#
Just want you to know that wherever you go

Have no fear, I'll be near
Just to hold your hand, make you understand
You're the one for me, I'm the one for you


Riff 1

Verse

All the times we've been through
Now I'm staring at these pictures left from you

|------------------------------------|
|------------------------------------|
|-8--------11--------4------------6--|
|---------------------------------4--|
|-6--------9---------2------------4--|
|------------------------------------|
  H	  F#II	     G#		  F#                              E
Play this song once again listen close pretend it never seems to end


Pre Chorus

Hopefully again I will hear you say
That you knew it all before, though did it once again, again

Chorus

When the lights go down and you're not around
It's hard for me to be when you're not with me
Just want you to know that wherever you go
Have no fear, I'll be near
Just to hold your hand, make you understand
You're the one for me, I'm the one for you

Bridge
E	F#
I'll be there to hold you
I'll be there to hold you

  E		    F#2
|-----------------|------------------|
|-5-----5-----5---|-7-----7-----7----|
|---4-----4-----4-|---6-----6-----6--|
|-----2-----2-----|-----4-----4------|
|-----------------|------------------|
|-----------------|------------------|
I'll be there to hold you
I'll be there to hold you

Chorus

When the lights go down and you're not around
It's hard for me to be when you're not with me
Just want you to know that wherever you go
Have no fear, I'll be near
Just to hold your hand, make you understand
You're the one for me, I'm the one for you 

Riff 1 (2x)

Riff 2

  H	    F#II      G#	 E           F#  H
|--------------------|-------------------------|----|
|--------------------|-------------------------|----|
|--------------------|-------------------------|-4--|
|-4-4--8--X-4-4--8-X-|------8------------------|-4--|
|-2-2--6--X-1-1--6-X-|-6-6--6--X-2-2--2-2--2-4-|-2--|
|--------------------|-4-4-----X-0-0--0-0--0-2-|----|