No More Kings - About Schroeder Text Guitar Tab

Learn the song with the online tablature player
No More Kings - About Schroeder
  /This song is played completely on the piano, but I tried to tab it
   for guitar. I hope it is a little accurate, It sounded good when I
   played it./

Intro
|---------------------------------5-7---7-5----------5-------------------|
|---------------------------8---8-----8-----8-7-5--8---8-----------------|
|-------4-7--7-4s5-8----4-7---7------------------------------------------|
|---5-7---------------7--------------------------------------------------|
|------------------------------------------------------------------------|
|------------------------------------------------------------------------|

G     B          C           Cm
Sally Brown sits down by his piano.
G          B       C
He doesn't see her there.
             Cm
He plays his heart out.
G           D           C
She's mesmerized by his concentration.
G          D                 C
Closes her eyes and tried to see what he sees.
G           D        C            Cm
And this is love, oh yes, at it's finest,
G           B            C           Cm
and this is love how it needs to be,
G           B       C                 Cm
and it's in love to break through the shyness.
G   B             C            Cm
She knows it'd be love if he'd hold her.
G   B          C              Cm          G
She can't stop thinking about Schroeder.

Outro
|--------------------------------------------------|
|---------------------------8---8-6-4--------------|
|-------4-7--7-4s5-8----4-7---7-------3-4----------|
|---5-7---------------7----------------------------|
|--------------------------------------------------|
|--------------------------------------------------|