No Motive - Give Me Strength Text Guitar Tab

Learn the song with the online tablature player
                             GIVE ME STRENGTH - No Motive

By: Steve Wize

distortion used through intro

b=half bend
r=reverse bend

e|----------------------------------------------------------
B|--8br8----------8br8--------------------------------------
G|---------6-6-6--------6-----------------------------------
D|-------------------------8---6----------------------------
A|---------------------------------8------------------------
E|----------------------------------------------------------

e|----------------------------------------------------------
B|--8br8-----------8br8-------------------------------------
G|--------6-6-8-6-------6--8--10----------------------------
D|--------------------------------8-------------------------
A|----------------------------------------------------------
E|----------------------------------------------------------