No Odd Reason - No Brain Text Guitar Tab

Learn the song with the online tablature player
Subject: n/no_odd_reason/no_brain.crd

Notice: This is not our song.  We covered MxPx's version of it.  MxPx
covered the Cootees, who wrote the original version of the song.  In
Other words, it's a cover of a cover.

Intro Riff
E|------------------|--------------------|-------------------------|G
B|------------------|--------------------|-------------------------|U
G|---5--5-5-5-5-5-5-|--------------------|-------------------------|I
D|---5--5-5-5-5-5-5-|-2-3-2----3--3--3---|-3-3-3-5-5-5-------------|T
A|---3--3-3-3-3-3-3-|-------3--3--3--3---|-3-3-3-5-5-5-2-3--2-5----|A
E|------------------|----------1--1--1---|-1-1-1-3-3-3-------------|R
        PM----------              PM----------    PM---------------|
Repeat 2X

Verse
     C                                    F                 G
E|------------------|-----------------|-----------------|-------------------|G
B|------------------|-----------------|-----------------|-------------------|U
G|---5--5--5--5-----|----5--5--5--5---|-----------------|-------------------|I
D|---5--5--5--5-----|----5--5--5--5---|---3--3--3--3----|----5--5--5--5-----|T
A|---3--3--3--3-----|----3--3--3--3---|---3--3--3--3----|----5--5--5--5-----|A
E|------------------|-----------------|---1--1--1--1----|----3--3--3--3-----|R
Repeat 2X

Chorus
  F                                    G
E|-----------------|-----------------|-----------------|-------------------|G
B|-----------------|-----------------|-----------------|-------------------|U
G|-----------------|-----------------|-----------------|-------------------|I
D|-3--3--3--3--3---|-3--3--3--3--3---|--5--5--5--5--5--|--5--5--5--5--5----|T
A|-3--3--3--3--3---|-3--3--3--3--3---|--5--5--5--5--5--|--5--5--5--5--5----|A
E|-1--1--1--1--1---|-1--1--1--1--1---|--3--3--3--3--3--|--3--3--3--3--3----|R
Repeat 3X, except when on the third time, play only one G.

Here are the words:
Verse 1
Give Her Milk, Milk and Cookies,
Give her everything, even cooties...

Chorus
That girl's insane, (ba da bam bam ba)
The fact she even knows my name, (ba da bam bam ba)
Since the day we met, that girl's got no brain!
(Whaowhaowhao)That girl's got no brain.
(Whaowhaowhao)That girl's got no brain.

Verse 2
There's something strange, Something strange about her,
She never spoke a word, or moved a muscle....

Chorus

Outro
(Whao wha whao whao) That girl's got no brain.
(Whao wha whao whao) That girl's got no brain.

Order of Song:
Intro
Verse 1
Chorus
Intro
Verse 2
Chorus

Outro
using verse riff)
pick scrape

Tabulature explanation- PM- palm muting