No One - Again Text Guitar Tab

Learn the song with the online tablature player
INTRO
G/--5-----5-----3---3------/
D/----6-6--6--3---3--3-----/
A/-------------------------/
E/-------------------------/ X4

G/--5-----5-----3---3------/
D/----6-6--6--1---1--1-----/
A/-------------------------/
E/-------------------------/

THEN REPEAT FROM BEGINNING

CHORUS
G/-------------------------/
D/-3-33-1-3-13-------------/
A/-------------4-444-------/
E/-------------------------/

X4 THEN BACK TO VERSE

BRIDGE
WAIT FOR GUITAR TO GO THROUGH ONCE)
G/-3-------------------------/
D/---------------------1-----/
A/--3--3-4-3-3-4-3-3-4--3----/
E/---------------------------/

X4 THEN BACK TO CHORUS