No One - Wala Lang Text Guitar Tab

Learn song with the online tabulature player
-0------3---3---3---3---3---3---3---3---3---3---3---3---3---3---3-----|
--3------3---3---3---3---3---3---3---3---3---3---3---3---3---3--------|
----------0---0-------0---0-------0---0-------0---0-------0---0-------|
----------------------------------------------------------------------|
--------------------2-----------3-----------3-----------0-------------|
--------3-------------------------------------------------------------|


-2h3--3---3----3---3---3----3---3---3----3---3---3----3-2h3-------^3--|
-------3---3--3-----3---3--3-----3---3--3-----3---3----3----------^0--|
--------0---0--------0---0--------0---0--------0---0--------------^0--|
------------------------------------------------------------------^0--|
-------------------2------------3------------0--------------------^2--|
------3-----------------------------------------------------------^3--|