No Positivo - Morado Text Guitar Tab

Learn song with the online tabulature player
hey saludos aki les dejo el tab para los q gusten
no olviden pasart al myspace "www.myspace.com/nopositivorock"
saludos

   guitarras  y bajo en bemol
(no es la version mas nueva es la del demo "una simple idea")

intro:

1era guitarra:

e-*******--********--***-***-***---**--**-------------------|
b-----------------------------------------------------------|
g-7777777------------444---------------22---(x2)--77777777--|
d-7777777--77777777--444-444-555---22--22---------77777777--|
a-5555555--77777777--222-444-555---22--00---------55555555--|
E----------55555555------222-333---00-----------------------|


2da guiotarra:

e--------------------------------------------------(2 veces)----**--------|
b------10-------7--------10------7----------------------------------------|
g----7-----7--7---7----7----7--7---7---12121212-11111111--1212--99--1111--|
d--0-----------------0----------------------------------------------------|
a--------------------------------------10101010-9-9-9-9---1010--77--9-9---|
E-------------------------------------------------------------------------|


versos :

e-***--***-***--**--**---**--***-***--**--**----------|
b-----------------------------------------------------|
g-777---------------22---77---------------22---(x2)---|
d-777--444-555--22--22---77--444-555--22--22----------|
a-555--444-555--22--00---55--444-555--22--00----------|
E------222-333--00-----------222-333--00--------------|

precoro :
 (las 2 guitarras)
e--------------------------------------------------------------------|
b------------**------------------------------------------------------|
g---------------------------------77--22-----------------------------|
d-55-55-555--22--44----55-55-555--77--22--55-55-555--22--44---55-55--|
a-55-55-555--22--44----55-55-555--55--00--55-55-555--22--44---55-55--|
E-33-33-333--00--22----33-33-333----------33-33-333--00--22---33-33--|

   (guitarra 1)                      ( guitarra 2)
e-------------------------------- e-----------------------------------|
b-------------------------------- b-----------------------------------|
g-------------------------------- g-12121212--11111111--7777--9999--7-|
d--9999999--7777777--5555555555-- d-----------------------------------|
a--9999999--7777777--5555555555-- a-10101010--9-9-9-9---5555--7777--5-|
E--7777777--5555555--3333333333-- E-----------------------------------|


coro:
 (guitarra 1)
e-----------------------------------|
b-----------------------------------|
g--77777----------------------(x4)--|
d--77777--55555--99999--77777-------|
a--55555--55555--99999--77777-------|
E---------33333--77777--55555-------|


(guitarra 2)

e---------------------------------------------|
b---------------------------------------------|
g--7777---99999--1111111111-1212121212--------|
d---------------------------------------(x4)--|
a--55555--77777--9-9-9-9-9--1010101010--------|
E---------------------------------------------|


(*)pall mute

me faltaron los armonicos luego los actualizo cuidense

mi coreo :  franl_rocck@hotmail.com