No Remorse - Invisible Empire Text Guitar Tab

Learn the song with the online tablature player
    Key:

    P.M    palm mute
    ^      play this note upstrocke (other notes shuld be played downstrocke)

Intro
   e|---------------------------------------------------------------------|
   B|---------------------------------------------------------------------|
   G|---------------------------------------------------------------------|
   D|-2-2-2-2-2-2-2-2--7-7-7-7-7-7-7-7--9-9-9-9-9-9-9-9--7-7-7-7-7-7-7-7--|
   A|-2-2-2-2-2-2-2-2--7-7-7-7-7-7-7-7--9-9-9-9-9-9-9-9--7-7-7-7-7-7-7-7--|
   E|-0-0-0-0-0-0-0-0--5-5-5-5-5-5-5-5--7-7-7-7-7-7-7-7--5-5-5-5-5-5-5-5--|
                    ^                ^                ^                ^
   e|---------------------------------------------------------------------|
   B|---------------------------------------------------------------------|
   G|---------------------------------------------------------------------|
   D|-2-2-2-2-2-2-2-2--7-7-7-7-7-7-7-7--9-9-9-9-9-9-9-9--7-7-7-7-7-7-7-7--|
   A|-2-2-2-2-2-2-2-2--7-7-7-7-7-7-7-7--9-9-9-9-9-9-9-9--7-7-7-7-7-7-7-7--|
   E|-0-0-0-0-0-0-0-0--5-5-5-5-5-5-5-5--7-7-7-7-7-7-7-7--5-5-5-5-5-5-5-5--|
P.M.  - - - - - - - -  - - - - - - - -  - - - - - - - -  - - - - - - - -
                    ^                ^                ^                ^
   e|---------------------------------------------------------------------|
   B|---------------------------------------------------------------------|
   G|---------------------------------------------------------------------|
   D|-2-2-2-2-2-2-2-2--7-7-7-7-7-7-7-7--9-9-9-9-9-9-9-9--7-7-7-7-7-7-7-7--|
   A|-2-2-2-2-2-2-2-2--7-7-7-7-7-7-7-7--9-9-9-9-9-9-9-9--7-7-7-7-7-7-7-7--|
   E|-0-0-0-0-0-0-0-0--5-5-5-5-5-5-5-5--7-7-7-7-7-7-7-7--5-5-5-5-5-5-5-5--|
                    ^                ^                ^                ^
   e|---------------------------------------------------------------------|
   B|---------------------------------------------------------------------|
   G|---------------------------------------------------------------------|
   D|-2-2-2-2-2-2-2-2--7-7-7-7-7-7-7-7--9-9-9-9-9-9-9-9--7-7-7-7-7-7-7-7--|
   A|-2-2-2-2-2-2-2-2--7-7-7-7-7-7-7-7--9-9-9-9-9-9-9-9--7-7-7-7-7-7-7-7--|
   E|-0-0-0-0-0-0-0-0--5-5-5-5-5-5-5-5--7-7-7-7-7-7-7-7--5-5-5-5-5-5-5-5--|
                    ^                ^                ^                ^

Verse

   e|---------------------------------------------------------------------|
   B|---------------------------------------------------------------------|
   G|---------------------------------------------------------------------|
   D|-2-2-2-2-2-2-2-2--7-7-7-7-7-7-7-7--9-9-9-9-9-9-9-9--7-7-7-7-7-7-7-7--|
   A|-2-2-2-2-2-2-2-2--7-7-7-7-7-7-7-7--9-9-9-9-9-9-9-9--7-7-7-7-7-7-7-7--|
   E|-0-0-0-0-0-0-0-0--5-5-5-5-5-5-5-5--7-7-7-7-7-7-7-7--5-5-5-5-5-5-5-5--|
P.M.  - - - - - - - -  - - - - - - - -  - - - - - - - -  - - - - - - - -
                    ^                ^                ^                ^
   e|---------------------------------------------------------------------|
   B|---------------------------------------------------------------------|
   G|---------------------------------------------------------------------|
   D|-2-2-2-2-2-2-2-2--7-7-7-7-7-7-7-7--9-9-9-9-9-9-9-9--7-7-7-7-7-7-7-7--|
   A|-2-2-2-2-2-2-2-2--7-7-7-7-7-7-7-7--9-9-9-9-9-9-9-9--7-7-7-7-7-7-7-7--|
   E|-0-0-0-0-0-0-0-0--5-5-5-5-5-5-5-5--7-7-7-7-7-7-7-7--5-5-5-5-5-5-5-5--|
P.M.  - - - - - - - -  - - - - - - - -  - - - - - - - -  - - - - - - - -
                    ^                ^                ^                ^
   e|---------------------------------------------------------------------|
   B|---------------------------------------------------------------------|
   G|---------------------------------------------------------------------|
   D|-2-2-2-2-2-2-2-2--7-7-7-7-7-7-7-7--9-9-9-9-9-9-9-9--7-7-7-7-7-7-7-7--|
   A|-2-2-2-2-2-2-2-2--7-7-7-7-7-7-7-7--9-9-9-9-9-9-9-9--7-7-7-7-7-7-7-7--|
   E|-0-0-0-0-0-0-0-0--5-5-5-5-5-5-5-5--7-7-7-7-7-7-7-7--5-5-5-5-5-5-5-5--|
P.M.  - - - - - - - -  - - - - - - - -  - - - - - - - -  - - - - - - - -
                    ^                ^                ^                ^
   e|---------------------------------------------------------------------|
   B|---------------------------------------------------------------------|
   G|---------------------------------------------------------------------|
   D|-2-2-2-2-2-2-2-2--7-7-7-7-7-7-7-7--9-9-9-9-9-9-9-9--7-7-7-7-7-7-7-7--|
   A|-2-2-2-2-2-2-2-2--7-7-7-7-7-7-7-7--9-9-9-9-9-9-9-9--7-7-7-7-7-7-7-7--|
   E|-0-0-0-0-0-0-0-0--5-5-5-5-5-5-5-5--7-7-7-7-7-7-7-7--5-5-5-5-5-5-5-5--|
P.M.  - - - - - - - -  - - - - - - - -  - - - - - - - -                ^
                    ^                ^                ^

Chours:

   e|----------------------------------------------------------|    |
   B|----------------------------------------------------------|    |
   G|----------------------------------------------------------|    |
   D|-2--2-2-2-2--9--9-9-9-9--7--7-7-7-7--2--2-2-2-2-----------|    |
   A|-2--2-2-2-2--9--9-9-9-9--7--7-7-7-7--2--2-2-2-2-----------|    |
   E|-0--0-0-0-0--7--7-7-7-7--5--5-5-5-5--0--0-0-0-0-----------|    |
           ^   ^       ^   ^       ^   ^       ^   ^                | x2
   e|----------------------------------------------------------|    |
   B|----------------------------------------------------------|    |
   G|----------------------------------------------------------|    |
   D|-2--2-2-2-2--9--9-9-9-9--7-7-7-7-7-7-7-7--2-2-2-2-2-2-2-2-|    |
   A|-2--2-2-2-2--9--9-9-9-9--7-7-7-7-7-7-7-7--2-2-2-2-2-2-2-2-|    |
   E|-0--0-0-0-0--7--7-7-7-7--5-5-5-5-5-5-5-5--0-0-0-0-0-0-0-0-|    |
P.M.       ^   ^       ^   ^    ^   ^   ^   ^  - - - - - - - -

Verse

Chours

Verse

Chours....

                                                       Submitted by Skorup