No Te Va Gustar - La Unica Voz Text Guitar Tab

Learn the song with the online tablature player
Cancion: La unica voz
Artista: No te va a gustar

Acordes:

   Dom   Re   Mib   Fa    Solm  Sib
   Cm    D     Eb   F     Gm    Bb
|-3-8---5-2---6-3--1-8---3-10--1-6--|
|-4-8---7-3---8-4--1-10--3-11--3-6--|
|-5-8---7-2---8-3--2-10--3-12--3-7--|
|-5-10--7-0---8-1--3-10--5-12--3-8--|
|-3-10--5-x---6-x--3-8---5-10--1-8--|
|---8-----x-----x--1-----3-------6--|

Intro

|---------------------------------------|
|----------------------------------5~---|
|---------------------------------------|
|-5---3-5-5--------5-----------5h7------|
|---5----------------5-4-3--------------|
|------------1-3------------------------|

|--------------------------------5-5----|
|----------------------------6-8--8-----|
|---------------------------------------|
|-5---3-5-5--------5--------------------|
|---5----------------5-4-3--------------|
|------------1-3------------------------|

Gm Cm x8

Esta es la parte de trompeta para la viola

|------------------------------------------|
|-10/11-10-8-10~-8-10-8-10-11-10-8-8-------|
|------------------------------------------| x4
|------------------------------------------|
|------------------------------------------|
|------------------------------------------|

Gm                                                 Cm
Algunos siguen dudando si existe el amor
F                                       Bb
Y se siguen preguntando a donde llega la razon
Eb                                          Cm
Pero yo no me olvido de todo lo que me diste
D                                  Gm
Te lo digo con una mano en el corazon

Gm                                   Cm
Que no es facil poder hacer el bien sin mirar a quien
          F                                     Bb
Que nos falta por todos lados como salimos esta ves
Eb                             Cm
No necesitamos nada de lo que perdimos
        D                           Gm
Pero no teniamos nada, pero nada que ver

Cm                 Gm F                   Cm
Solo confio en su voz, solo le creo a esa unica voz
Cm                    Gm                         F    D
Porque te ganaste el cielo y nos cubriste a los dos

Gm                                       Cm
Y no me olvido de tus caricias y no me olvido de tu dolor
        F                                   Bb
Que pensaste en nosotros primero, no te acordaste solo de vos
Eb                                      Cm
Para que hubiera para almorzar, y que tuviéramos en que soñar
        D                             Gm
No lo dudes de todo eso no me voy a olvidar

Cm                 Gm F                   Cm
Solo confio en su voz, solo le creo a esa unica voz
Cm                    Gm                         F    D
Porque te ganaste el cielo y nos cubriste a los dos

                   Gm Cm F Bb Eb Cm D

Gm                                       Cm
Y no me olvido de tus caricias y no me olvido de tu dolor
        F                                   Bb
Que pensaste en nosotros primero, no te acordaste solo de vos
Eb                                      Cm
Para que hubiera para almorzar, y que tuviéramos en que soñar
        D                             Gm
No lo dudes de todo eso no me voy a olvidar

Cm                 Gm F                   Cm
Solo confio en su voz, solo le creo a esa unica voz
Cm                    Gm                         F        x3
Porque te ganaste el cielo y nos cubriste a los dos

Gm Cm x7

Cm                    Gm                         F
Porque te ganaste el cielo y nos cubriste a los dos

Cm                 Gm F                   Cm
Solo confio en su voz, solo le creo a esa unica voz
Cm                    Gm                         F
Porque te ganaste el cielo y nos cubriste a los dos