No Thought Required - Just Dan Text Guitar Tab

Learn the song with the online tablature player
Song: Just Dan
Artist: No Thought Required

Verse
|--------------------------------------------------------------
|--------------------------------------------------------------
|--5-5--55555--------------------------------------------------
|--5-5--55555---55-55555---33-33333--- 77--77777-----x4--------
|--3-3--33333-- 55-55555---33-33333----77--77777---------------
|---------------33-33333---11-11111----55--55555---------------
            PM  ..

Chourus
|------------------------------------------------------------
|------------------------------------------------------------
|----5--5--5-5-----------------------------------------------
|----5--5--5-5-----5555----3333------------x4----------------
|----3- 3- 3-3---- 5555----3333------------------------------
|------------------3333----1111------------------------------