No Use For A Name - Coming To Close Text Guitar Tab

Learn the song with the online tablature player
Coming to close
                                                           no use for a name

by:soad sk8er
this is a sweet song listen to it for the rythm

e|---------------------------------------------------------------------------|
B|---------------------------------------------------------------------------|
G|-------------------------------------------------------------------------5-|
D|-X-X-X---X-X-X-X---X-X---X-X-X-3-X-X-X-X-3-X-X-2-X-X-X-3--X-X-X-X-3--X-X-5-|
A|-X-X-X-7-X-X-X-X-7-X-X-2-X-X-X-3-X-X-X-X-3-X-X-2-X-X-X-5--X-X-X-X-5--X-X-3-|
E|-X-X-X-8-X-X-X-X-8-X-X-3-X-X-X-1-X-X-X-X-1-X-X-0-X-X-X----X-X-X-X----X-X---|

e|-------------------------I
D|-X-X-X---X-X-X-X---X-X-3-I
A|-X-X-X-2-X-X-X-X-2-X-X-3-I
E|-X-X-X-3-X-X-X-X-3-X-X-1-I

e|---------------------------------------------------------------------------|
B|---------------------------------------------------------------------------|
G|---------------------------------------------------------------------------|
D|-X-X-X-2-X-X-X-X-2-X-X-2-X-X-X-3-X-X-X-X-3-X-X-3-X-X-X---X-X-X-X---X-X-----|
A|-X-X-X-2-X-X-X-X-2-X-X-2-X-X-X-3-X-X-X-X-3-X-X-3-X-X-X-7-X-X-X-X-7-X-X-7---|
E|-X-X-X-0-X-X-X-X-0-X-X-0-X-X-X-1-X-X-X-X-1-X-X-1-X-X-X-8-X-X-X-X-8-X-X-8---|

Chorus
e|---------------------------------------------------------------------------|
B|---------------------------------------------------------------------------|
G|---------------------5--------------9--------10---------5------------------|
D|-5---------3---------5----5---------9--------10---------5--------5-------8-|
A|-5---------3---------3----5---------7--------8----------3--------5-------8-|
E|-3---------1--------------3--------------------------------------3-------6-|

G|--------------------I
D|---7------3-------5-I
A|---7------3-------5-I
E|---5------1-------3-I

Bridge
e|---------------------------------------------------------------------------|
B|---------------------------------------------------------------------------|
G|----------------------------------------------------------7----------------|
D|----3----------5----------------7---------5--------3------7----------------|
A|----3----------5--------7-------7---------5--------3------5----------------|
E|----1----------3--------4-------5---------3--------1-----------------------|

Solo
(Guitar 1)
e|-----------------------------------------I
B|-----------------------------------------I
G|-5-----------------------7---------5-----I
D|-5------5----3-------2---7---------5---5-I
A|-3------5----3-------2---5---------3---5-I
E|--------3----1-------0-----------------3-I

Solo
(Guitar 2) - use reverb or some other
            effect to get the sound
e|-----------------------------------------I
B|---------------------------------------8-I
G|-9------7----------------10--------9-----I
D|------------10-------9-------------------I
A|-----------------------------------------I
E|-----------------------------------------I
---------------------------------------------------------|
B|---------I-------------------------------------------------------------------|
G|---------I-----------------------------------------------------------------5-|
D|-X-X-X---I-X-X-X-X---X-X---X-X-X-3-X-X-X-X-3-X-X-2-X-X-X-3--X-X-X-X-3--X-X-5-|
A|-X-X-X-7-I-X-X-X-X-7-X-X-2-X-X-X-3-X-X-X-X-3-X-X-2-X-X-X-5--X-X-X-X-5--X-X-3-|
E|-X-X-X-8-I-X-X-X-X-8-X-X-3-X-X-X-1-X-X-X-X-1-X-X-0-X-X-X----X-X-X-X----X-X---|

e|----------------------------------I
B|----------------------------------I
G|----------------------------------I    X 2
D|-X-X-X---X-X-X-X---X-X-3----------I
A|-X-X-X-2-X-X-X-X-2-X-X-3--7-7-7-7-I
E|-X-X-X-3-X-X-X-X-3-X-X-1--8-8-8-8-I

e|-----------------------------------------------------------------------------|
B|-----------------------------------------------------------------------------|
G|---------------------------------------------------------------------------5-|
D|-X-X-X-----X-X-X-X---X-X---X-X-X-3-X-X-X-X-3-X-X-2-X-X-X-3--X-X-X-X-3--X-X-5-|
A|-X-X-X-7---X-X-X-X-7-X-X-2-X-X-X-3-X-X-X-X-3-X-X-2-X-X-X-5--X-X-X-X-5--X-X-3-|
E|-X-X-X-8---X-X-X-X-8-X-X-3-X-X-X-1-X-X-X-X-1-X-X-0-X-X-X----X-X-X-X----X-X---|

e|----------------------------------I
B|----------------------------------I
G|--------------------------9-9-9-9-I
D|-X-X-X---X-X-X-X---X-X-3----------I
A|-X-X-X-2-X-X-X-X-2-X-X-3--7-7-7-7-I
E|-X-X-X-3-X-X-X-X-3-X-X-1----------I

e|-----------------------------------------------------------------------------|
B|-----------------------------------------------------------------------------|
G|-------------------9-----12------14--------14----12------10---------10-----9-|
D|-----------X-X-X-X---X-X---X-X-X---X-X-X-X---X-X---X-X-X----X-X-X-X----X-X---|
A|-----------X-X-X-X-7-X-X-10X-X-X-12X-X-X-X-12X-X-10X-X-X-8--X-X-X-X-8--X-X-7-|
E|-----------X-X-X-X---X-X---X-X-X---X-X-X-X---X-X---X-X-X----X-X-X-X----X-X---|

e|----------------------------------I
B|----------------------------------I
G|-------12--------12---10--9-9-9-9-I
D|-X-X-X---X-X-X-X---X-X------------I
A|-X-X-X-10X-X-X-X-10X-X-8--7-7-7-7-I
E|-X-X-X---X-X-X-X---X-X------------I

e|-------------|
B|-------------|
G|-------------|
D|---2---------|
A|---3---------|
E|-------------|