No Use For A Name - Couch Boy Text Guitar Tab

Learn the song with the online tablature player
Couch Boy - No Use For A Name

There's one tab for this song that isn't very good so I think I'll make a better version.
Here's a tab for a really good song. I'm sure it's right.

Intro

Guitar 1 - Play this twice.

e|------------------------------------------------------------------------|
B|------------------------------------------------------------------------|
G|--7-------7--------7-------------------------7------7-------7-----------|
D|--7-------7--------7-----8------8------8-----7------7-------7-----------|
A|--5--5-5--5---5-5--5--5--8------8------8-----5--5-5-5--5-5--5--5--------|
E|-------------------------6--6-6-6--6-6-6--6-----------------------------|
       x x      x x     x     x x    x x    x     x x    x x     x

(continued)
e|----------------------------|
B|----------------------------|
G|--8-----8-----8-------------|
D|--8-----8-----8-------------|
A|--6-6-6-6-6-6-6-6-----------|
E|----------------------------|
      x x   x x   x

 Guitar 2 - Play this twice.
e|------------------------------------|
B|------------------------------------|
G|---7-----7|3--3/7---7/10/8----------|
D|---x~----x\x~-x/x~--x/x-/x~---------|
A|---5-----5\1--1/5---5/8-/6----------|
E|------------------------------------|

 Guiar 1 - Play this right after the Intro.
e|---------------------------------------------|
B|---------------------------------------------|
G|--7-----7-----7---8-----8-----8--------------|
D|--7-----7-----7---8-----8-----8--------------|
A|--5-5-5-5-5-5-5-5-6-6-6-6-6-6-6-6------------|
E|---------------------------------------------|
      x x   x x   x   x x   x x   x
Pre-Verse Riff

Guitar 1 - Play this twice.
e|--------------------------------------------------------------|
B|--------------------------------------------------------------|
G|--11-11--11-13-13--13--14-14--14--9-9--9---11-11-11-11-11-11--|
D|--x--x---x--x--x---x---x--x---x---x-x--x---x--x--x--x--x--x---|
A|--9--9---9--11-11--11--12-12--12--7-7--7---9--9--9--9--9--9---|
E|--------------------------------------------------------------|

(continued)
e|---------------------|--------------------|
B|---------------------|--------------------|
G|-10-10--10-10-10--10-|--------------------|
D|-x--x---x--x--x---x--|--------------------| <----this last riff is played
A|-8--8---8--8--8---8--|--------------------|   only after the second time.
E|---------------------|-9--10-9-7-9-7-5-4--|

Guitar 2 - Play this twice along with Guitar 1.
e|---------------------------------------------------------------------|
B|---------------------------------------------------------------------|
G|------------------------------------7-7--7--7-7--7---6-6--6--6-6--6--|
D|--4-4--4--4-4--4---2-2--2--2-2--2---7-7--7--7-7--7---6-6--6--6-6--6--|
A|--4-4--4--4-4--4---2-2--2--2-2--2---5-5--5--5-5--5---4-4--4--4-4--4--|
E|--2-2--2--2-2--2---0-0--0--0-0--0------------------------------------|

e|--------------------------------------------|
B|--------------------------------------------|
G|---------------------6-6--6--6-6--6---------|<---play this when Guitar 1
D|----7-7--7--7-7--7---6-6--6--6-6--6---------| plays that last riff.
A|----7-7--7--7-7--7---4-4--4--4-4--4---------|
E|----5-5--5--5-5--5--------------------------|

Verse
Both Guitars. Play this 4 times.

e|---------------------------------------------------------------------|
B|---------------------------------------------------------------------|
G|-----------------------------------4-4--4--4-4--4---7-7--7--7-7--7---|
D|-4-4--4--4-4--4---2-2--2--2-2--2---4-4--4--4-4--4---7-7--7--7-7--7---|
A|-4-4--4--4-4--4---2-2--2--2-2--2---2-2--2--2-2--2---5-5--5--5-5--5---|
E|-2-2--2--2-2--2---0-0--0--0-0--0-------------------------------------|

Then this.
Both Guitars.
e|-----------------------------------------|
B|-----------------------------------------|
G|--6-6--6--6-6--6--6-6--6--6-6--6---------|
D|--6-6--6--6-6--6--6-6--6--6-6--6---------|
A|--4-4--4--4-4--4--4-4--4--4-4--4---------|
E|-----------------------------------------|

Chorus
Both Guitars - Play this twice.

e|-----------------------------------------------------------------------|
B|-----------------------------------------------------------------------|
G|-----------------------------------------------------------------------|
D|--4------4--4-4-4--4------4--4-4-4--7------7--7-7-7--7------7--7-7-7---|
A|--4------4--4-4-4--4------4--4-4-4--7------7--7-7-7--7------7--7-7-7---|
E|--2-2222-2--2-2-2--2-2222-2--2-2-2--5-5555-5--5-5-5--5-5555-5--5-5-5---|
      xxxx             xxxx             xxxx             xxxx

(continued)
e|-----------------------------------------------------------------|
B|-----------------------------------------------------------------|
G|-7-7--7--7-7--7--7-7--7--7-7--7--6-6--6--6-6--6--4-4--4--4-4-----|
D|-7-7--7--7-7--7--7-7--7--7-7--7--6-6--6--6-6--6--4-4--4--4-4-----|
A|-5-5--5--5-5--5--5-5--5--5-5--5--4-4--4--4-4--4--2-2--2--2-2-----|
E|-----------------------------------------------------------------|

Then this riff again. Only after second time.

Guitar 1
e|--------------------|
B|--------------------|
G|--------------------|
D|--------------------|
A|--------------------|
E|-9--10-9-7-9-7-5-4--|

Guitar 2

e|--------------------------------------|
B|--------------------------------------|
G|------------------6-6--6--6-6--6------|
D|--7-7--7--7-7--7--6-6--6--6-6--6------|
A|--7-7--7--7-7--7--4-4--4--4-4--4------|
E|--5-5--5--5-5--5----------------------|

Verse
Both Guitars. Play this 4 times.

e|---------------------------------------------------------------------|
B|---------------------------------------------------------------------|
G|-----------------------------------4-4--4--4-4--4---7-7--7--7-7--7---|
D|-4-4--4--4-4--4---2-2--2--2-2--2---4-4--4--4-4--4---7-7--7--7-7--7---|
A|-4-4--4--4-4--4---2-2--2--2-2--2---2-2--2--2-2--2---5-5--5--5-5--5---|
E|-2-2--2--2-2--2---0-0--0--0-0--0-------------------------------------|

Then this.
Guitar 1
e|-----------------------------------------|
B|-----------------------------------------|
G|--6-6--6--6-6--6--6-6--6--6-6--6---------|
D|--6-6--6--6-6--6--6-6--6--6-6--6---------|
A|--4-4--4--4-4--4--4-4--4--4-4--4---------|
E|-----------------------------------------|

Guitar 2
e|-----------------------------------------------|
B|-----------------------------------------------|
G|-------------------10-10--10--10-10--10--------|
D|-------------------x--x---x---x--x---x---------| Guitar 2 comes after two
A|-------------------8--8---8---8--8---8---------| bars of Guitar 1. You
E|-----------------------------------------------| can figure it out ;).

Chorus
Both Guitars - Play this twice.

e|-----------------------------------------------------------------------|
B|-----------------------------------------------------------------------|
G|-----------------------------------------------------------------------|
D|--4------4--4-4-4--4------4--4-4-4--7------7--7-7-7--7------7--7-7-7---|
A|--4------4--4-4-4--4------4--4-4-4--7------7--7-7-7--7------7--7-7-7---|
E|--2-2222-2--2-2-2--2-2222-2--2-2-2--5-5555-5--5-5-5--5-5555-5--5-5-5---|
      xxxx             xxxx             xxxx             xxxx

(continued)
e|-----------------------------------------------------------------|
B|-----------------------------------------------------------------|
G|-7-7--7--7-7--7--7-7--7--7-7--7--6-6--6--6-6--6--4-4--4--4-4-----|
D|-7-7--7--7-7--7--7-7--7--7-7--7--6-6--6--6-6--6--4-4--4--4-4-----|
A|-5-5--5--5-5--5--5-5--5--5-5--5--4-4--4--4-4--4--2-2--2--2-2-----|
E|-----------------------------------------------------------------|

Bridge
Both Guitars - Play each part once.

e|----------------------------------------------------------------------|
B|----------------------------------------------------------------------|
G|2-2--2--2-2--2--4-4--4--4-4--4--6-6--6----------6-6--6--6-6--6--------|
D|2-2--2--2-2--2--4-4--4--4-4--4--6-6--6--6-6--6--6-6--6--6-6--6--------|
A|0-0--0--0-0--0--2-2--2--2-2--2--4-4--4--6-6--6--4-4--4--4-4--4--------|
E|----------------------------------------4-4--4------------------------|

e|-----------------------------------------------------|
B|-----------------------------------------------------|
G|-----------------------------------------------------|
D|---7-7--7--7-7--7------6----44--4-4-4-4--44----------|
A|---7-7--7--7-7--7------6~---44--4-4-4-4--44----------|
E|---5-5--5--5-5--5------4----22--2-2-2-2--22----------|

That's it!

| /  slide up
| \  slide down
| ~  Hold Chord
| x  Palm Mute

LAST NOTE:
e|--------------------|
B|--------------------|
G|--------------------|
D|--------------------| this riff can also
A|--------------------| be played as:
E|-9--10-9-7-9-7-5-4--|

e|--------------------|
B|--------------------|
G|--------------------|
D|--------------------|
A|-4--5-4-2-4-2-0-----|
E|----------------4---|