No Use For A Name - Exit Acoustic Text Guitar Tab

Learn the song with the online tablature player
Song:           Exit
By:             Tony Sly (No Use For A Name)

Album:          Joey Cape & Tony Sly - Acoustic
Year:           2004
Label:          FAT WRECK CHORDS

Tabed by:       Chilev (2005)

You can play the chords how u want, but make shure the E-Chord is on the 7th fret:

Intro
      Cm#           A      Fm#      Am G#
E:------------------------------------------|
B:------------------------------------------|
G:------------------------------------------|
D:------------------------------------------|
A:---4--4-4--6--7--0--0-------------4--3--3-|
E:-----------------------4--2--2--2---------|

      Cm#         A       Fm#      Am G#
E:--------------------------------------------------|
B:--------------------------------------------------|
G:--------------------------------------------------|
D:--------------------------------------------------|
A:--4--4-4-6--7--0--0--------------4--3--7--6--5--4-|
E:--------------------4--2--2--2--------------------|

Cm            A               E                 B
Yesterday becomes tomorrow leaves you wanting more
     Fm#           A                  E     G#
So intricate becomes the bathroom floor
      Cm#                 A              E            B
And even though you're in a ditch you dig a deeper hole
      Fm#                A            B   A
And I'm a shovel it's out of my control

             E                             D         Cm#
Promised a change didn't hear a word from you don't hold me back
B         A                    B   A
The exit isn't somewhere in my heart
             E D A   G#                  Cm    A    Fm#    A  G#
A promise of pain...   we're back to the start

Cm#                 A                 E         B
The reason that I still persist it's obvious I care
Fm#                    A                  E     G#
Been waiting by your door with no one there
Cm#                    A                E               B
It seems that you are locked inside my key don't fit no more
Fm#                          A                B          A
And you're walking on the landmines you laid down before

             E                             D         Cm#
Promised a change didn't hear a word from you don't hold me back
B         A                      B
The exit isn't somewhere in my heart
E                              D           Cm#
Didn't hear a word from you don't hold me back
B         A                      B    A
The exit isn't somewhere in my heart

              E   D   A
Promised you Pain...

For Comments and suggestions e-mail me!
chilev 2005