No Vacancy - Toby And Me Text Guitar Tab

Learn song with the online tabulature player
intro(this is tobys bit)
e---------------------------------------------------------|
b-----------9-----------5-----7---------------------------|
g--------9-----------6-----8------------------------------|x5
d-----9-----------7-----9---------------------------------|
a---------------------------------------------------------|
E---------------------------------------------------------|

(then this bit that i think we should do together)
e---------------------------------------------------------|
b---9------5----7-----------------------------------------|
g---9------6----8-----------------------------------------|
d---9------7----9-----------------------------------------|x?
a---------------------------------------------------------|
E---------------------------------------------------------|

(strumming bit)
e-----------------------------------------------------------|
b---9-9-9-9-9-9-------5-5----7-7-7-7------------------------|
g---9-9-9-9-9-9-------6-6----8-8-8-8----------------------x-|
d---9-9-9-9-9-9-------7-7----9-9-9-9------------------------|
a-----------------------------------------------------------|
E-----------------------------------------------------------|

and thats all ive got so far