Nobuo Uematsu - Final Fantasy Vii - Fighting Text Guitar Tab

Learn song with the online tabulature player
Battle Theme from FFVII

Another classic from Nobuo

E|-----------------------1-----2-1---2----------------------------------|
B|-------------------------1-4-----4------------------------------------|
G|--5-x-x--5-x-x--5-x-x-----------------5-x-x--5-x-x-5-x-x--3--3--3-----|
D|--3-x-x--3-x-x--3-x-x-----------------3-x-x--3-x-x-3-x-x--1--1--1-----|
A|----------------------------------------------------------------------|
E|----------------------------------------------------------------------|


E|-----------------------1-----2-1---2----------------------------------|
B|-------------------------1-4-----4------------------------------------|
G|--5-x-x--5-x-x--5-x-x-----------------5-x-x--5-x-x-5-x-x--3--3--3-----|
D|--3-x-x--3-x-x--3-x-x-----------------3-x-x--3-x-x-3-x-x--1--1--1-----|
A|----------------------------------------------------------------------|
E|----------------------------------------------------------------------|


E|----------------------------3-4-6-8-----------------------------------|
B|------------------------4-6-------------------------------------------|
G|------------------1-3-5-----------------------------------------------|
D|------------1-3-5-----------------------------------------------------|
A|--------1-3-----------------------------------------------------------|
E|--1-3-4---------------------------------------------------------------|


E|--4---------------------------6-----6---------------------------------|
B|----6-6-----------------6-8-9---9-8---9-6-7-7-------------------------|
G|--------------3-----3-------------------------8-----------------------|
D|--------3-5-6---6-5---6-----------------------------------------------|
A|----------------------------------------------------------------------|
E|----------------------------------------------------------------------|


E|----------------------------3-4-6-8-----------------------------------|
B|------------------------4-6-------------------------------------------|
G|------------------1-3-5-----------------------------------------------|
D|------------1-3-5-----------------------------------------------------|
A|--------1-3-----------------------------------------------------------|
E|--1-3-4---------------------------------------------------------------|


E|--4---------------------------6-----6---------------------------------|
B|----6-6-----------------6-8-9---9-8---9-6-7-7-------------------------|
G|--------------3-----3-------------------------8-----------------------|
D|--------3-5-6---6-5---6-----------------------------------------------|
A|----------------------------------------------------------------------|
E|----------------------------------------------------------------------|

E|-----------------------------------------------6-----6----------------|
B|-----------------------------------------6-8-9---9-8---9---6-5--------|
G|--5-x-x--5-x-x--5-x-x----------3-----3-------------------5-----8-6----|
D|--3-x-x--3-x-x--3-x-x----3-5-6---6-5---6------------------------------|
A|----------------------------------------------------------------------|
E|----------------------------------------------------------------------|


E|--8-6-8-6-----------------------------------------4-6-----------------|
B|----------9-6-8-9-----6-----------------4---4-6-8---------------------|
G|------------------6-8-------------3-5-6---6---------------------------|
D|----------------------------6-5-6-------------------------------------|
A|----------------------------------------------------------------------|
E|----------------------------------------------------------------------|


E|--4---------------------------------------------------4--------------|
B|----5-6-8-6-5-----------4---6-4-----------------4-6-8----------------|
G|--------------3-6-3-5-6---6--------6-5-3--3-5-6----------------------|
D|---------------------------------------------------------------------|
A|---------------------------------------------------------------------|
E|---------------------------------------------------------------------|

         E|--------------8----9-8----------------|
         B|-----9-8-11-9---11-----9--------------|
         G|--10---------------------10-----------|
   A     D|--------------------------------------| 
         A|--------------------------------------|
         E|--------------------------------------|


         E|------------6---8-6-------------------|
         B|----8-6-9-8---9-----8-----------------|
         G|--8-------------------8---------------|
   B     D|--------------------------------------| 
         A|--------------------------------------|
         E|--------------------------------------|


Play this part in this order

A  A  B  A  A  B

then this part

E|-------------------------------------------------------------------|
B|-----9-8-----------------------------------------------------------|
G|--10-----10--------------------------------------------------------|
D|-------------------------------------------------------------------|
A|-------------------------------------------------------------------|
E|-------------------------------------------------------------------|


And then go back to the start just after the first 3 chords and repeat.


Hope you liked it.  Please rate :)