Nobuo Uematsu - Final Fantasy Vii - Racing Chocobos Text Guitar Tab

Learn the song with the online tablature player
Racing Chocobos from FFVII

When you're in the gold saucer 'racing chocobos', this plays.

E|-----------10----10-14--12-14-12--10-12-10--8-10-8--7-8-7--5-7-5-----5-7---5--|
B|--10----10----10---------------------------------------------------8-----8----|
G|-----11-----------------------------------------------------------------------|
D|------------------------------------------------------------------------------|
A|------------------------------------------------------------------------------|
E|------------------------------------------------------------------------------|

E|-----------10----10-14--12-14-15--14-15-14--12-14-12--10-12-10--8-10-8--------10-12----10--|
B|--10----10----10--------------------------------------------------------12-13-------13-----|
G|-----11------------------------------------------------------------------------------------|
D|-------------------------------------------------------------------------------------------|
A|-------------------------------------------------------------------------------------------|
E|-------------------------------------------------------------------------------------------|

E|--5--7--8---5-6-8-6-5-6-5------5--7--8---5--------|
B|--6--8--10----------------8-6--6--8--10----8-6-8--|
G|--5--7--10---------------------5--7--10-----------|
D|--------------------------------------------------|
A|--------------------------------------------------|
E|--------------------------------------------------|

There we go, nice and simple but well sounding when played along with the track or a good backing.

Please rate :)