Nobuo Uematsu - Final Fantasy X - To Zanarkand Opening Theme Text Guitar Tab

Learn song with the online tabulature player
-------------------------------------------------------------------------------
                             To Zanarkand - Nobuo Uematsu
-------------------------------------------------------------------------------
Tabbed by: Taylor
Email: ff7_advent_kadaj@hotmail.com

Tuning: EADGBe


| /  slide up
| \  slide down
| h  hammer-on
| p  pull-off
| ~  vibrato
| +  harmonic
| x  Mute note
===============================================================================


e|-0--------0-2-3~-||-----------------|
B|--------0---3-1~-||-3--------3-5-7~-|
G|------0----------||--------2---5-4~-|
D|----2------------||----0-4----------|
A|-----------------||-----------------|
E|-----------------||-----------------|

e|-------------------||-------------------|
B|-0--0--0------3----||-5--5--5--3---8----|
G|----------2-----0~-||----------------5~-|
D|-------------------||-------------------|
A|-------------------||-------------------|
E|-------------------||-------------------|

e|-------------1---1-3-5-8-|
B|-----------1---1---------|
G|-------0-2---------------|
D|-----3-------------------|
A|---3---------------------|
E|-1-----------------------|

e|-0--------------------------||-0---------------------------|
B|-5----5-7-8--7-5-3--5-3-1-0-||-5----5-7-8--7-8-10--8-10-12-|
G|----4-----------------------||----4------------------------|
D|----------------------------||-----------------------------|
A|----------------------------||-----------------------------|
E|----------------------------||-----------------------------|

e|-0--------------------------|
B|-5----5-7-8--7-5-3--5-3-1-0-|
G|----4-----------------------|
D|----------------------------|
A|----------------------------|
E|----------------------------|

E|-----------------||-------------------0-------0--3-5-|
B|-----0-0-0---3---||----------------------------------|
G|-0-2-------2---0-||-0---------------5-------5--------|
D|-----------------||---4-0-2-5---2-5-----2-5----------|
A|-----------------||-----------3----------------------|
E|-----------------||----------------------------------|

e|-12--12--10-8-7--15-15-7--14-14-5--12-12-11-|
B|-----10-------------------------------------|
G|--------------------------------------------|
D|--------------------------------------------|
A|--------------------------------------------|
E|--------------------------------------------|

e|---------2---0-----------5--5--4~--|
B|---------0---0--------------2--5~--|
G|-----4-----------7---6~------------|
D|-4---4-----------4---2~------------|
A|-2---------------------------------|
E|-----------------------------------|

e|-------2----------|
B|-5-2-0----------7-|
G|---------2------8-|
D|-----------4\7--9-|
A|------------------|
E|------------------|