Nocturnal Depression - They Text Guitar Tab

Learn the song with the online tablature player
Artist: Nocturnal Depression
Song: They
Album: The Cult of Negation

Riff1

e|------------------------------|------------------------------|
B|------------------------------|------------------------------|
G|------------------------------|------------------------------|
D|------------------------------|------------------------------|
A|--6--6--6--6--6--6--6/8--8/9--|--6--6--6--6--6--6--6/8--8/9--|
E|--4--4--4--4--4--4--4/6--6/7--|--4--4--4--4--4--4--4/6--6/7--|

e|------------------------------|------------------------------|
B|------------------------------|------------------------------|
G|------------------------------|------------------------------|
D|------------------------------|------------------------------|
A|--4--4--4--4--4--4--4/5--5/7--|--6--6--6--6--6--6--7-4-------|
E|--2--2--2--2--2--2--2/3--3/5--|--4--4--4--4--4--4--5-2-------|

Riff2

e|--------------------------|--------------------------|
B|--------------------------|--------------------------|
G|--------------------------|--------------------------|
D|--------------------------|--------------------------|
A|--2--2--2--2--2--2--2--2--|--4--4--4--4--4--4--4--4--|
E|--0--0--0--0--0--0--0--0--|--2--2--2--2--2--2--2--2--|

e|--------------------------|--------------------------|
B|--------------------------|--------------------------|
G|--------------------------|--------------------------|
D|--------------------------|--------------------------|
A|--2--2--2--2--2--2--2--2--|--4--4--4--4--4--4--4--3--|
E|--0--0--0--0--0--0--0--0--|--2--2--2--2--2--2--2--1--|

e|--------------------------|--------------------------|
B|--------------------------|--------------------------|
G|--------------------------|--------------------------|
D|--------------------------|--------------------------|
A|--2--2--2--2--2--2--2--2--|--4--4--4--4--4--4--4--4--|
E|--0--0--0--0--0--0--0--0--|--2--2--2--2--2--2--2--2--|

e|--------------------------|--------------------------|
B|--------------------------|--------------------------|
G|--------------------------|--------------------------|
D|--------------------------|--------------------------|
A|--2--2--2--2--2--2--2--2--|--4--4--4--4--4--4--5--5--|
E|--0--0--0--0--0--0--0--0--|--2--2--2--2--2--2--3--3--|

It might be not 100% accurate.