Nocturne - I Lie Text Guitar Tab

Learn song with the online tabulature player
-------------------------------------------------------------------------------
                             Nocturne - "I Lie"
-------------------------------------------------------------------------------
Tabbed by:DecayingSinner
Email:decayingsinner@verizon.net

Tuning: C

Intro / Verse
D|-----------------------------------------------------------------------------|
A|-----------------------------------------------------------------------------|
F|-----------------------------------------------------------------------------|
C|-----------------------------------------------------------------------------|
G|-------------------6--777--2222--------------------6-777-999-----------------|
C|22222222-----------------------2-2-2-2-2-2-2-2-------------------------------|

D|---------------------------------------------------------------------------|
A|---------------------------------------------------------------------------|
F|---------------------------------------------------------------------------|
C|---------------------------------------------------------------------------|
G|------------2--6666--777--------------6--7777---999------------------------|
C|-22222222-------------------22222222---------------------------------------|

Chorus
D|---------------------------------------------------------------------------|
A|---------------------------------------------------------------------------|
F|---------------------------------------------------------------------------|
C|---------------------------------------------------------------------------|
G|--2--22----555--4444----------2--22---555--7777----------------------------|
C|--2--22----555--4444----------2--22---555--7777----------------------------|

D|---------------------------------------------------------------------------|
A|---------------------------------------------------------------------------|
F|---------------------------------------------------------------------------|
C|---------------------------------------------------------------------------|
G|--2--22---9--9--9---8-7-5-----------2--22--777---5555----------------------|
C|--2--22---9--9--9---8-7-5-----------2--22--777---5555----------------------|

Bridge:
D|---------------------------------------------------------------------------------------|
A|---------------------------------------------------------------------------------------|
F|---------------------------------------------------------------------------------------|
C|-----5------7-----2--------------------------------------------------------------------|
G|-----5------7-----2--------------------------------------------------------------------|
C|-----5------7-----2-----------------------------------------------------------|--------|

| /  slide up
| \  slide down
| h  hammer-on
| p  pull-off
| ~  vibrato
| +  harmonic
| x  Mute note
===============================================================================