Nodes Of Ranvier - Dawning Age Text Guitar Tab

Learn the song with the online tablature player
Im pretty sure this correct

The Dawning Age By Nodes of Ranvier

As We Bow...
|---------------------------------------------------------------------------|
|---------------------------------------------------------------------------|
|---------------------------------------------------------------------------|
|---------------------------------------------------------------------------|
|000000000000000033333333333333338888888855555555---------------------------|
|000000000000000033333333333333338888888855555555---------------------------|
 ........................................

|---------------------------------------------------------------------------|
|---------------------------------------------------------------------------|
|7----7----5-9-7----7-------------------------------------------------------|
|------------------------7-10-7---------------------------------------------|
|5----5----3-7-5----5-------------------------------------------------------|
|------------------------7-10-7---------------------------------------------|

thats it please rate