Nodes Of Ranvier - Eight Weeks Of Priveledge No Time For Regret Text Guitar Tab

Learn song with the online tabulature player
Nodes of Ranvier is an kick ass local band from Sioux Falls,SD
Check em out!

Drop D Tuning
Nodes of Ranvier
Eight Weeks of Priveledge, No Time for Regret


------------------------------|
------------------------------|
------------------------------|(REPEAT 4x)
----7-8-5/10-----00000000000--|
-----------------00000000000--|
-----------------00000000000--|
                 -------------| (PALM MUTING W/ RHYTHMN)

-------------------------------------------------------------------------|
-------------------------------------------------------------------------|
-------------------------------------------------------------------------|
----------------------------------33333-1/3333---------------------------|
---8-7-5-7-5-3--8-7-10-8-7-8------33333-1/3333---------------------------|
----------------------------------33333-1/3333---------------------------|


---------------------------------------------------------------|
---------------------------------------------------------------|
--10-9--7--9--7--5---10-9--12--10-9--10------------------------|
--x--x--x--x--x--x---x--x--x---x--x--x------33333-1/3333-------|
--8--7--5--7--5--3---8--7--10--8--7--8------33333-1/3333-------|
--------------------------------------------33333-1/3333-------|


Those are just parts of the song, listen to the cd to figure the rhythmn.
Later, Alex