NOFX - Arming The Proletariat With Potato Guns Text Guitar Tab

Learn song with the online tabulature player
ARMING THE PROLETARIAT WITH POTATO GUNS

There's loads of breaks and crap in this song, but
only 2 main riffs, so here they are, and the order 
they go in.

* = X5 
 
A                         *
E|-----------------------2------------------------|
B|---*--*--------*--*----2---*--*--------*--*-----|
G|--7--9---*--*-7--9---*-4--7--9---*--*-7--9---*--|
D|--7--9--7--4--7--9--7--5--7--9--7--4--7--9--7---|
A|--5--7--7--4--5--7--7-----5--7--7--4--5--7--7---|
E|--------5--2--------5-----------5--2--------5---|

B
E|--------------------------------|
B|---*-----------*----------------|
G|--4---*--*--*-4---*-7-7-7-7-----|
D|--4--2--7--4--4--2--7-7-7-7-7---|
A|--2--2--7--4--2--2--5-5-5-5-7---|
E|-----0--5--2-----0----------5---|

Played overall in this order:

A-B-B-A-B-BA