NOFX - California Uber Alice Text Guitar Tab

Learn song with the online tabulature player
Song - California Über Alice
Band - NOFX
Album - 8th 7 Inch Of The Month Club
Tabbed By - Tyler Freear (SumFX)

Song Name Remind You Of The Dead Kennedys? lol

Awesome Song, Very Short - 0.42

One Riff Used For All The Song!
|-------------------------------------|
|-------------------------------------|
|-----------6-6-6-6-----------3-3-3-3-|
|--4-4-4-4--6-6-6-6--4-4-4-4--3-3-3-3-|
|--4-4-4-4--4-4-4-4--4-4-4-4--1-1-1-1-|
|--2-2-2-2-----------2-2-2-2----------|

|-------------------------------------|
|-------------------------------------|
|-----------8-8-8-8-------------------|
|--4-4-4-4--8-8-8-8--6-6-6-6--4-4-4-4-|
|--4-4-4-4--6-6-6-6--6-6-6-6--4-4-4-4-|
|--2-2-2-2-----------4-4-4-4--2-2-2-2-|

Play That Once
Then Bass Interlude         |-----|
Play Riff Once              |-----|
Play Riff Again But Stop At |-----|
                            |--6--|
                            |--6--|
                            |--4--|