NOFX - Cantado En Espanol Text Guitar Tab

Learn the song with the online tablature player
e|---------------------------------------------|
B|---------------------------------------------|
G|---------------------------------------------|  PLAY
D|---7------6------5------4------3------2------| 3 TIMES
A|---7------6------5------4------3------2------|
E|---5------4------3------2------1------0------|

e|-------------------------------|
B|-------------------------------|
G|---5---------------------------|
D|---5------5------7------3------|  PLAY
A|---3------5------7------3------| 2 TIMES
E|----------3------5------1------|