NOFX - Co Dependence Day Text Guitar Tab

Learn song with the online tabulature player
Codependence Day
Nofx
Cokie the Clown EP

2/11/10 (revised 4/17/10)
Kyle Dixon

A is Left Guitar, B is Right Guitar
Intro A x2 *=x6 #=x3 (fast)
E|----------------------------------------------------|
B|-------------------------------------*--------------|
G|----------*---#----10-*----------14-12---#------*---| last note plays once
D|-10-9-7-5-7---10-7-10-9---10-9-7-14-12---10-7-5-7---|
A|-10-9-7-5-----10-7-8--9---10-9-7-12-10---10-7-5-7---|
E|-8--7-5-3-5---8--5----7---8--7-5---------8--5-3-5---|

Intro B x2 *=x6 #=x3 (fast)
E|-----------------------------------------------------|
B|-----------*--------------------------*--------------|
G|----------14---#----10-*----------14-12---#------*---| last note plays once
D|-10-9-7-5------10-7-10-9---10-9-7-14-12---10-7-5-7---|
A|-10-9-7-5-10---10-7-8--9---10-9-7-12-10---10-7-5-7---|
E|-8--7-5-3------8--5----7---8--7-5---------8--5-3-5---|

Verse A&B x2 *=x8 palm mute #=x6 palm mute
E|--------------------------------------------|
B|--------------------------------------------|
G|------------------------------------------7-| play Intro A or B x2, then Verse x2
D|----------10-7-----------10-7-----------5-7-|
A|*-----#---10-7-*-----#---10-7-*-----#---5-5-|
E|5-----1---8--5-5-----1---8--5-5-----1---3---|

Bridge A *=x8 #=x4
E|-----------------------------|
B|-*--*--------#-*---*-*-*-----|
G|10-10-10-10-10-2-*-5-4-2-*-*-| play Intro A
D|---------------2-3-5-5-2-3-5-|
A|8--8--8--8--8--0-3-3-2-0-3-5-|
E|-----------------1-------1-3-|

Bridge B *=x8 #=x2 palm mute
E|----------------------------|
B|-*--*--*--*-#-#-#-#-#-#-#-#-|
G|10-17-13-12-2-0-2-0-2-5-2-0-| play Intro B
D|------------\-play-7-times-/|
A|8--15-11-10-----------------|
E|----------------------------|

Done.