NOFX - Everything In Moderation Especially Moderation Text Guitar Tab

Learn the song with the online tablature player
BAND: NOFX
SONG: Everything In Moderation (Especially Moderation)
ALBUM: Never Trust a Hippy EP

Main Riff
e|--------------------------------------------------------------------------|
B|--------------------------------------------------------------------------|
G|-9-12-9-121412-9-12-9-12-9-121412-----------------------------------------|
D|-x--x-x--x-x-x-x--x-x--x-x--x-x-x-----------------------------------------|
A|-7-10-7-101210-7-10-7-10-7-101210-----------------------------------------|
E|--------------------------------------------------------------------------|

e|--------------------------------------------------------------------------|
B|--------------------------------------------------------------------------|
G|-9-12-9-121412-9-12-9-121412-999------------------------------------------|
D|-x--x-x--x-x-x-x--x-x--x-x-x-999------------------------------------------|
A|-7-10-7-101210-7-10-7-101210-777------------------------------------------|
E|-----------------------------000------------------------------------------|
Palm mute                      ...

Verse
e|--------------------------------------------------------------------------|
B|--------------------------------------------------------------------------|
G|-9~-5~-7~-9~--------------------------------------------------------------|
D|-9~-5~-7~-9~--------------------------------------------------------------|
A|-7~-3~-5~-7~--------------------------------------------------------------|
E|-0~-------0~--------------------------------------------------------------|

That's pretty much it. There's a few octave chords during the verses that i can't quite
but you can just make em up or leave em out.

Enjoy!