NOFX - Food Sex And Ewe Text Guitar Tab

Learn song with the online tabulature player
E----------------------------------------------------------------->
B----------------------------------------------------------------->
G----------------------------------------------------------------->
D---17-17-17-17-17-16-14-12--12------17-17-17-17-17-16-14-16-17--->
A----------------------------------------------------------------->
E----------------------------------------------------------------->

E---------------------------------------------------->
B---------------------------------------------------->
G----------------------14-16-14--16-17-16-14-16------>
D---12/14-17-17--14-17--------------------------12--->
A---------------------------------------------------->
E---------------------------------------------------->

E-----------------------------------------|
B-----------------------------------------|
G----------------------14-16-14-----------|
D---12/14-17-17--14-17----------16---17*--|
A-----------------------------------------|
E-----------------------------------------|

*=slow bend
/=slide