NOFX - Fungus Text Guitar Tab

Learn the song with the online tablature player
Very Short, Funny Song - 0.20

Intro
|-----|
|-----|
|--5--|
|--5--|
|--3--|
|-----|
            *=Palm Mute
|-----------------------------------------|
|-----------------------------------------|
|-----------------------------------------|
|--12-12-12----12------12-12-12----12-----|
|--10-10-10-10----10---10-10-10-10----10--|
|-----------------------------------------|
            *  *  *              *  *  *
|-----------------------------------------|
|-----------------------------------------|
|-----------------------------------------|
|--12-12-12----12------12-12-12----12-----|
|--9--9--9--9------9---9--9--9--9------9--|
|-----------------------------------------|
            *  *  *             *  *
|---------------------------------|
|---------------------------------|
|---------------------------------|
|--9-9-9----9------9-9-9----9-----|
|--7-7-7-7-----7---7-7-7-7-----7--|
|---------------------------------|
         *  *  *         *  *  *
|--------------------------------|
|--------------------------------|
|--------------------------------|
|--9-9-9----9-----9-9-9----9-----|
|--5-5-5-5-----5--5-5-5-5-----5--|
|--------------------------------|
         *  *  *        *  *  *
|---------|--------|--------|-------------|---------|
|---------|--------|--------|-------------|---------|
|---------|--------|-2-2-2-2|--7--7--7--7-|---------|
|--5-5-5-5|-5-5-5-5|-2-2-2-2|--7--7--7--7-|---------|
|--3-3-3-3|-2-2-2-2|-0-0-0-0|--5--5--5--5-|-5-------|
|---------|--------|--------|-------------|-3-------|

Thats The Song In Order!

The Palm Mutes Are Weird But Listen To The Song
And You Will Get It.

Rate And Comment Please!