NOFX - Lisa And Louise Text Guitar Tab

Learn song with the online tabulature player
NOFX - Lisa and Louise - Solo
By: Kevin Mawn (October 2009)

e--------------------------------------------------------------------------|
B-17b19-17b19-17v---14----14-------------------17--------------------------|
G----------------------17----17-16-14----14b16----b16-b16--17p16p14----14--|
D-------------------------------------------------------------------16-----|
A--------------------------------------------------------------------------|
E--------------------------------------------------------------------------|

e-------------------------------------------|
B-------------------------------------------|
G-------------14-------14-------14-------14-|
D-16p14-14h16----14h16----14h16----14h16----|
A-------------------------------------------|
E-------------------------------------------|

e-------------------14-14---------------------------------------------|
B----------------17-------17-14----------------16b16b-18r16p14---14---|
G-------14h16b18----------------17-16-14----------------------16------|
D-14h16----------------------------------16-14------------------------|
A---------------------------------------------------------------------|
E---------------------------------------------------------------------|

Note: Bend the first note with your pinky. Each of you fingers should have a "dedicated 
i.e.: Your picky is on 17, your ring finger on 16, middle finger on 15 and index on 14. 
Fun!