Noggin Toboggan - Alchohol Text Guitar Tab

Learn the song with the online tablature player
E)----------------------------------------------------------------|
B)----------------------------------------------------------------|
G)----------------------------------------------------------------|
D)--2----4-5--9--8-----9-5-8-4---2--5----2--5----2--5----8-8-8-8--|
A)--2----4-5--9--8-----9-5-8-4---2--5----2--5----2--5----8-8-8-8--|
D)--2----4-5--9--8-----9-5-8-4---2--5----2--5----2--5----8-8-8-8--|

E)----------------------------------------------------------------|
B)----------------------------------------------------------------|
G)----------------------------------------------------------------|
D)2--5----2--5----2--5----8-8-8-8--9-5-8-4--2---------------------|
A)2--5----2--5----2--5----8-8-8-8--9-5-8-4--2---------------------|
D)2--5----2--5----2--5----8-8-8-8--9-5-8-4--2---------------------|