Noir Desir - A Ton Toile Text Guitar Tab

Learn the song with the online tablature player
A ton étoile - Noir Désir

INTRO

   Am      Am      F      C     Am      Am     F      C
|-----------------------------------------------------------|
|----4------4------4------4------4------4------4------4-----|
|---5------5------5------3------5------5------5------3------|
|--5------5------6------5------5------5------6------5-------|
|-3------3------6------6------3------3------6------6--------|
|-----------------------------------------------------------|

   Am      Am      F      C     Am      Am     F      C
|-----------------------------------------------------------|
|----4------4------4------4------4------4------4------4-----|
|---5------5------5------3------5------5------5------3------|
|--5------5------6------5------5------5------6------5-------|
|-3------3------6------6------3------3------6------6--------|
|-----------------------------------------------------------|
        Sous ...                    Et dans...

   Am      Am      F      C     Am      Am     F      C
|-----------------------------------------------------------|
|----4------4------4------4------4------4------4------4-----|
|---5------5------5------3------5------5------5------3------|
|--5------5------6------5------5------5------6------5-------|
|-3------3------6------6------3------3------6------6--------|
|-----------------------------------------------------------|
        Si tu...                   Dis-toi...

   Am      Am      F            Am      Am     F
|-----------------------------------------------------------|
|----4------4------4------6------4------4------4------6-----|
|---5------5------5------7------5------5------5------7------|
|--5------5------6------8------5------5------6------8-------|
|-3------3------6------8------3------3------6------8--------|
|-----------------------------------------------------------|
                     A t...

With your mediator

   Am      Am      F            Am      Am     F
|-----------------------------------------------------------|
|-4------4------4------6------4------4------4------6--------|
|-5------5------5------7------5------5------5------7--------|
|-5------5------6------8------5------5------6------8--------|
|-3------3------6------8------3------3------6------8--------|
|-----------------------------------------------------------|

   Am      Am      F            Am      Am     F
|-----------------------------------------------------------|
|-4------4------4------6------4------4------4------6--------|
|-5------5------5------7------5------5------5------7--------|
|-5------5------6------8------5------5------6------8--------|
|-3------3------6------8------3------3------6------8--------|
|-----------------------------------------------------------|

   Am      Am      F            Am      Am     F
|-----------------------------------------------------------|
|-4------4------4------6------4------4------4------6--------|
|-5------5------5------7------5------5------5------7--------|
|-5------5------6------8------5------5------6------8--------|
|-3------3------6------8------3------3------6------8--------|
|-----------------------------------------------------------|

   Am      Am      F            Am
|----------------------------------|
|-4------4------4------6------4----|
|-5------5------5------7------5----|
|-5------5------6------8------5----|
|-3------3------6------8------3----|
|----------------------------------|

This is the intro... enjoy