Noisettes - Dont Give Up Text Guitar Tab

Learn the song with the online tablature player
                             Don't Give Up - The Noisettes

I noticed that noone added anything by the amazing Noisettes! I'm going to see them soon
Muse and it should be a kick ass show! This is their latest single "Don't Give Up",
them out they've got an amazing new sound!

Intro  Bass
e|--------------------------------------------------------------------------|
B|--------------------------------------------------------------------------|
G|--------------------------------------------------------------------------|
D|--------------------------------------------------------------------------|
A|--------------------------------------------------------------------------|
E|----3-6-3--3-3-3-4-3--3-3--3-6-3--3-3-3-4-3--3-3--------------------------|

Main Riff (Bass & Guitar) 2x
e|--------------------------------------------------------------------------|
B|--------------------------------------------------------------------------|
G|--------------------------------------------------------------------------|
D|--------------------------------------------------------------------------|
A|--------------------------------------------------------------------------|
E|----3-6-3--3-3-3-4-3--3-3--3-6-3--3-3-3-4-3--3-3--------------------------|

Bridge
Bass & Guitar) 2x
e|-----------------------x-x-x-x-x-x-x--------------------------------------|
B|-----------------------x-x-x-x-x-x-x--------------------------------------|
G|-----------------------x-x-x-x-x-x-x--------------------------------------|
D|-----------------------x-x-x-x-x-x-x--------------------------------------|
A|-----------------------x-x-x-x-x-x-x--------------------------------------|
E|----3-6-3--3-3-3-4-3---x-x-x-x-x-x-x--------------------------------------|

Chorus 2x
e|----3---5---7---9---3---5---6---8-----------------------------------------|
B|----3---5---7---9---3---5---6---8-----------------------------------------|
G|----4---6---7---9---4---6---7---9-----------------------------------------|
D|----5---7---8---10--5---7---8---10----------------------------------------|
A|----5---7---8---10--5---7---8---10----------------------------------------|
E|--- 3---5---6---8---3---5---6---8-----------------------------------------|

Main Riff (Bass & Guitar) 6x
e|--------------------------------------------------------------------------|
B|--------------------------------------------------------------------------|
G|--------------------------------------------------------------------------|
D|--------------------------------------------------------------------------|
A|--------------------------------------------------------------------------|
E|----3-6-3--3-3-3-4-3--3-3--3-6-3--3-3-3-4-3--3-3--------------------------|

Bridge
Bass & Guitar) 2x
e|-----------------------x-x-x-x-x-x-x--------------------------------------|
B|-----------------------x-x-x-x-x-x-x--------------------------------------|
G|-----------------------x-x-x-x-x-x-x--------------------------------------|
D|-----------------------x-x-x-x-x-x-x--------------------------------------|
A|-----------------------x-x-x-x-x-x-x--------------------------------------|
E|----3-6-3--3-3-3-4-3---x-x-x-x-x-x-x--------------------------------------|

Chorus 2x
e|----3---5---7---9---3---5---6---8-----------------------------------------|
B|----3---5---7---9---3---5---6---8-----------------------------------------|
G|----4---6---7---9---4---6---7---9-----------------------------------------|
D|----5---7---8---10--5---7---8---10----------------------------------------|
A|----5---7---8---10--5---7---8---10----------------------------------------|
E|--- 3---5---6---8---3---5---6---8-----------------------------------------|

The solo is played over the main riff, i'll add it soon but if you can't wait in the
while just play anytihng in the key of G, anything on the G Blues Scale should sound great.

Main Riff (Bass & Guitar) 6x
e|--------------------------------------------------------------------------|
B|--------------------------------------------------------------------------|
G|--------------------------------------------------------------------------|
D|--------------------------------------------------------------------------|
A|--------------------------------------------------------------------------|
E|----3-6-3--3-3-3-4-3--3-3--3-6-3--3-3-3-4-3--3-3--------------------------|

That's it, it's a very simple song to play but it's so incredible!

| /  slide up
| \  slide down
| h  hammer-on
| p  pull-off
| ~  vibrato
| +  harmonic
| x  Mute note