Nokturnal Mortum - Goat Horns Text Guitar Tab

Learn the song with the online tablature player
                             GOAT HORNS - Nokturnal Mortum

All riffs except intro are distorted

| /  slide up
| \  slide down
| h  hammer-on
| p  pull-off
| ~  vibrato
| +  harmonic
| x  Mute note
| *  Sustained/Held Note
| '#' Tremelo Pick

Intro
Clean
 |-----------------------------------------------------------------------|
 |-----------------------------------------------------------------------|
 |-----------------------------------------------------------------------|
 |-------3-------------3-------------4-------------4-------------4-------|
 |----3-----3-------3-----3-------3-----3-------3-----3-------4-----4----|
 |-3-------------3-------------3-------------3-------------4-------------|

 -------------------------------------------|
 -------------------------------------------|
 -------------------------------------------|
 --------4-------------3-------------3------|
 -----4-----4-------3-----3-------3-----3---|
 --4-------------3-------------3------------|

 Riff 1
 |------------------------------------------------|
 |------------------------------------------------|
 |------------------------------------------------|
 |------------------------------------------------|
 |------------------------------------------------|
 |--3---------------3--3-----------8------6---5---|
    *                  *           *          *

 Riff 2
 |-----------x2--------------|-----------x2--------------|
 |---------------------------|---------------------------|
 |---------------------------|---------------------------|
 |---------------------------|---------------------------|
 |---------------------------|---------------------------|
 |-3--3333--3--3--333333333--|-6--6666--6--6--666666666--|

 Riff 3
 |----------------------------------------------------|
 |----------------------------------------------------|
 |----------------------------------------------------|
 |----------------------------------------------------|
 |----------------------------------------------------|
 |-'3'------------------------'8'---------'6'----'5'--|

 Riff 4
 |-----------------------------------------|
 |-----------------------------------------|
 |-----------------------------------------|
 |-----------------------------------------|
 |-----'6'---'8'--'6'--'8'--'6'--'9'--'8'--|
 |-'6'-------------------------------------|

 Riff 5
 |------------------------------------------------|
 |------------------------------------------------|
 |------------------------------------------------|
 |------------------------------------------------|
 |-'8'---'6'---'8'---'6'---'8'---'6'---'5'---'3'--|
 |------------------------------------------------|

 Riff 6
 |-------x2----------|-------x2----------|---------------------------------|
 |-------------------|-------------------|---------------------------------|
 |-------------------|-------------------|---------------------------------|
 |-----------'3'-----|----------'4'------|---------------------------------|
 |-------'3'-----'3'-|------'3'------'3'-|---------------------------------|
 |--'3'--------------|-'3'---------------|--'10'--------'8'-----'6'---'5'--|

 Riff 7
 |-------------------------------------------------------------------------|
 |-------------------------------------------------------------------------|
 |-------------------------------------------------------------------------|
 |-------------------------------------------------------------------------|
 |-------------------------------------------------------------------------|
 |--'3'----'5'--'6'---'3'--'5'--'6'----'3'---'5'---'8'--'6'--'5'-----------|

 Riff 8
 |-------------------------------------------------------------------------|
 |-------------------------------------------------------------------------|
 |-------------------------------------------------------------------------|
 |-------------------------------------------------------------------------|
 |-------------------------------------------------------------------------|
 |--'3'---'5'----'10'----'8'--'7'----'3'---'5'----'8'----'6'--'5'----------|

 Riff 9
 |----------------------------------------------------|
 |----------------------------------------------------|
 |-----------------------------------'9'----'8'--'9'--|
 |----------------------------------------------------|
 |----------------------------------------------------|
 |--'11'---------------'5'----------------------------|

 Riff 10
 |-----------x2------------------|-------------------x2--------------------|
 |-------------------------------|-----------------------------------------|
 |-------------------------------|--'9'-----'8'--'9'--'11'---'9'--'8'------|
 |-------------------------------|-----------------------------------------|
 |--'7'-----'6'--'7'--'6'---'4'--|-----------------------------------------|
 |-------------------------------|-----------------------------------------|

ORDER

Intro 2x
Riff 1 2x
Riff 2 2x
Riff 3 4x
Riff 4 17x
Riff 5 8x
Riff 6 4x
Riff 4 24x
Riff 7 4x
Riff 8 4x
Riff 9 4x
Riff 10 2x
Riff 7 4x
Riff 8 4x
Riff 7 4x
Riff 8 4x
Intro 2x
Riff 3 Fades / Play until the song ends.
End