Nokturnal Mortum - Kolyada Text Guitar Tab

Learn the song with the online tablature player
                             Kolyada - Nokturnal Mortum

  Riff 1
e|---------------------------------|
B|---------------------------------|
G|---------------------------------|
D|---------------------------------|
A|---------------------------------|
E|--3h5-----3h5-----3h5--5--3--5---|

  Riff 2
e|------------------------------------------------|
B|------------------------------------------------|
G|------------------------------------------------|
D|----------------------------------'10'-'9'-'7'--|
A|--'0'-------------------------------------------|
E|------------------------------------------------|

  Riff 3
e|------------------------------------------------|
B|------------------------------------------------|
G|------------------------------------------------|
D|------------------------------------------------|
A|------------------------------------------------|
E|--'0'-----------------------------'5'-----------|

  Riff 4
e|--------------------------------------------------------------------------|
B|--------------------------------------------------------------------------|
G|--------------------------'5'---'4'---'2'---'4'---'7'---'5'---'4'---'2'---|
D|--'2'---'5'---'4'---'5'---------------------------------------------------|
A|--------------------------------------------------------------------------|
E|--------------------------------------------------------------------------|

e|-----------------------|
B|-----------------------|
G|-----------------------|
D|'5'---'4'---'5'---'7'--|
A|-----------------------|
E|-----------------------|

  Riff 4b
e|--------------------------------------------------------------------|
B|--------------------------------------------------------------------|
G|--------------------------'5'---'4'---'2'---'4'---'7'---'5'---'4'---|
D|--'2'---'5'---'4'---'5'---------------------------------------------|
A|--------------------------------------------------------------------|
E|--------------------------------------------------------------------|

  Riff 5
e|----------------------------------------|
B|----------------------------------------|
G|----------------------------------------|
D|----------------------------------------|
A|----------------------------------------|
E|--0-------------------3---------3-------|
    *                   *         *

  Riff 6
e|---------------------------------------------------------------------|
B|---------------------------------------------------------------------|
G|----------------------'5'---'4'---'2'---'4'---------------'5'--------|
D|----------------------------------------------------'5'---------'5'--|
A|--'2'-----------------------------------------'3'--------------------|
E|---------------------------------------------------------------------|

e|------------------------|
B|------------------------|
G|-------------'4'--------|
D|-------'4'---------'4'--|
A|-'2'--------------------|
E|------------------------|

  Riff 7
e|---------------------------------|
B|---------------------------------|
G|---------------------------------|
D|---------------------------------|
A|---------------------------------|
E|--0----0-0----0-0----0-0-5----5--|

  Riff 8
e|---------------------------------------------------------------------|
B|---------------------------------------------------------------------|
G|---------------------------------------------------------------------|
D|----------------------------7----------------------------------------|
A|---------7------7--8--7--5--------------------7---------------5------|
E|--5-----------------------------3--3--5---5-------5---3---3-------3--|

  Riff 8b
e|---------------------------------------------------------------------|
B|---------------------------------------------------------------------|
G|---------------------------------------------------------------------|
D|----------------------------7---------------------------------5------|
A|---------7------7--8--7--5--------------------7-----------5-------5--|
E|--5-----------------------------3--3--5---5-------5---3--------------|

  Riff 9
e|----------------------------------------------------------------------|
B|----------------------------------------------------------------------|
G|----------------------------------------------------------------------|
D|----------------------------------------------------------------------|
A|----------------------------------------------------------------------|
E|--5------5----------------------12\---'1'-------------'0'-------------|

e|----------------------------------------------------------------------|
B|----------------------------------------------------------------------|
G|----------------------------------------------------------------------|
D|----------------------------------------------------------------------|
A|----------------------------------------------------------------------|
E|--5------5----------------------12\---'1'-------------'3'-------------|

  Ending
e|----------------|
B|----------------|
G|----------------|
D|----------------|
A|----------------|
E|--5------5------|

Riff Order

Riff 1 x 8
Riff 2 x 4
Riff 1 x 8
Riff 2 x 4
Riff 3 x 12
Riff 4 x 3
Riff 4b x 1
Riff 1 x 8
Riff 2 x 4
Riff 3 x 12
Riff 4 x 3
Riff 4b x 1
Riff 5 x 2
Riff 6 x 4
Riff 5 x 2
Riff 6 x 4
Riff 7 x 4
Riff 3 x 3
Riff 7 x 1
Riff 4 x 1
Riff 4b x 1
Riff 8 x 1
Riff 8b x 1
Riff 8 x 1
Riff 8b x 1
Riff 9 x 2
Ending

| '#'  Tremelo Pick
| *  Held note
| /  slide up
| \  slide down
| h  hammer-on
| p  pull-off
| ~  vibrato
| +  harmonic
| x  Mute note