Nola - Entropy Text Guitar Tab

Learn the song with the online tablature player
Part 1 (play 2x)

------x-x-----x-x---|
------x-x-----x-x---|
--4-4-x-x-----x-x---|
--4-4-x-x-0-0-x-x---|
--2-2-x-x-0-0-x-x---|
------x-x-0-0-x-x---|

Part 2 (harmonics over bass)

----------------------7^---|
-----7^-----------7^-------|
-5^------7^---5^-----------|
---------------------------|
---------------------------|
---------------------------|

Part 3 (play twice)

------------------------------------------------|
------------------------------------------------|
------------------------------------------------|
-------------------12-12-12-12-12---------------|
--555555--444444---14-14-14-14-14-12h14h12h0----|
--000000--000000--------------------------------|

Part 4 Chorus

----------------------------------------------------------------|
----------------------------------------------------------------|
----------------------44444--8777767777-10-10-10-10-12-12-12-12-|
-0x0x0x0-xx-0x0x0x0---------------------------------------------|
-0x0x0x0-xx-0x0x0x0---22222--6555545555--8--8--8--8-10-10-10-10-|
-0x0x0x0-xx-0x0x0x0---------------------------------------------|

Part 5 Break

2x
------------------------------------------------|
------------------------------------------------|
------------------------------------------------|
------------------------------------------------|
--------------------------------4-5-2-----------|
--5h7h0 5h7h0--5h7h0--5h7h0 3~5-------5-2-4-0---|

-------------------------------------------------------------------|
-------------------------------------------------------------------|
-------------------------------------------------------------------|
-0000-0-0000-0-0000-0-0000--------------4444-4---------------------|
-0000-0-0000-0-0000-0-0000--54----------2222-2--2222-2--454554-----|
-0000-0-0000-0-0000-0-0000--54--0000-0----------2222-2--454554-----|

Structure of the Song

Part1
Part2
Part3
Part4
Part1
Part2
Part3
Part4
Part1
Part5
hold
Part4
Part1