Nomadi - Oriente Text Guitar Tab

Learn song with the online tabulature player
song:oriente
artist:nomadi
album:corpo estraneo
tabbed by Bobo


This should be the intro and the riff after the chours..this is my first tab so i m 
for all the mistakes..for any correction or suggestion boria.p3@libero.it

I m not sure how many times to repeat it..just listen to the song

i think it should be palm muted...it sounds good!!
e|--------------------------------------------------|
B|--------------------------------------------------|
G|------10--10--10---9--7---------------7--7--------|
D|-----------------------------10-------------------|
A|--------------------------------------------------|
E|--------------------------------------------------|


e|--------------------------------------------------|
B|--------------------------------------------------|
G|------10--10--10---9--7---------------7-----------|
D|-----------------------------10-------------------|
A|--------------------------------------------------|
E|--------------------------------------------------|