Nomy - Crucified By Love Text Guitar Tab

Learn the song with the online tablature player
Very great song by Nomy!!
3njoi :D

Crucified By Love.

In the intro, i only right down the actual chords, there's alot of light strumming
(you hear it if u listen 2 the song)
and muting, but that part, u'll have to figure out urself ;)

|------------|------------|-------------|------------|------------|
|------------|------------|-------------|------------|------------|
|------------|------------|-------------|----------3-|--3-----3H--|
|------------|--5--5--5--5|-5--3-5--5--5|--5--5-3--3-|5-3--5--1O--|
|------------|--5--5--5--5|-5--3-5--5--5|--5--5-3--1-|5-1--5--1LD-|
|------------|--3--3--3--3|-3--1-3--3--3|--3--3-1----|3----3------|

 Little solo...

|-------------|-------------|------------|------------|
|-------------|-------------|------------|------------|
|---------5--7|---------5--7|---5--7-8--7|-5----------|
|-5--7--8-----|-5--7--8-----|-8----------|----8-7-8-7-|
|-------------|-------------|------------|------------|
|-------------|-------------|------------|------------|

well, that's how far i will go,the rest goes around mostly on the chords:

       Gm    F    Bb :)

p.s, my first actual tab, so be nice xD (i have only done chords b4)