None - Jeopardy Theme Text Guitar Tab

Learn song with the online tabulature player
Hello fellow guitarists.  I found a tab of Jeopardy and changed a few things to make it 
more true to the original song and easier to play.  Hope you like it.

e|------------------------------------------------|
B|----------------------------7---5---------------|
G|---7----------7-------7---7--------7-6----------|
D|-7---7---4--7---7---7---7--------------9-8------|
A|-------5----------------------------------------|
E|------------------------------------------------|

e|------------------------------------------------|
B|------------------------------------------------|
G|---7---------7----7-----------------------------|
D|-7---7---4-7---7-----9-7------------------------|
A|-------5------------------10--9--7--------------|
E|------------------------------------10----------|


e|------------------------------------------------|
B|---------------------------9---7----------------|
G|---9---------9-------9---9--------9-8-----------|
D|-9---9---6-9---9---9---9--------------11-10-----|
A|-------7----------------------------------------|
E|------------------------------------------------|

e|------------------------------------------------|
B|------------------------------------------------|
G|---9---------9----9-----------------------------|
D|-9---9---6-9---9----11-9------------------------|
A|-------7-----------------12---11---9------------|
E|-------------------------------------12---------|