None The Less - Micky Bath Text Guitar Tab

Learn song with the online tabulature player
chorus
e|----------------------------------------------|
B|----------------------------------------------|
G|----------------------------------------------|
D|-3-0-2-0-3-5-6-0--0---------------------------|
A|-3-0-2-0-3-5-6-0--0---------------------------|
D|-3-0-2-0-3-5-6-0--0---15p12-15p12-14p11-14p11-|

e|----------------------------------------------|
B|----------------------------------------------|
G|-------------------10-/-14--------------------|
D|-3-0-2-0-3-5-6-0---10-/-14--------------------|
A|-3-0-2-0-3-5-6-0---8--/-12--------------------|
D|-3-0-2-0-3-5-6-0------------------------------|

Thats all there is so far but more to come soon.....

http://www.myspace.com/nonethelessonline