None The Wiser - Memories Text Guitar Tab

Learn song with the online tabulature player
-------------------------------------------------------------------------------
                             Memories - None the Wiser
-------------------------------------------------------------------------------
Tabbed by: Elliott
Email: Stiflersez@aol.com

Tuning: Standard

Intro:
e|---------------------------------------------------------------------------|
B|---------------------------------------------------------------------------|
G|---------------------------------------------------------------------------|
D|------0--2--0-------2--4--2-------0--2--0-------0--4--0--------------------|
A|----0-------------2-------------0-------------0----------------------------|
E|--0-------------2-------------0-------------0------------------------------|

Verse:
e|---------------------------------------------------------------------------|
B|---------------------------------------------------------------------------|
G|---------------------------------------------------------------------------|
D|------0--2--0-------2--4--2-------0--2--0-------0--4--0----x4----------------|
A|----0-------------2-------------0-------------0----------------------------|
E|--0-------------2-------------0-------------0------------------------------|

Chorus: (each chord strummed repeatedly)
e|---------------------------------------------------------------------------|
B|---------------------------------------------------------------------------|
G|---------------------------------------------------------------------------|
D|--4----2----0--2-------------x2--------------------------------------------|
A|--0----0----0--0-----------------------------------------------------------|
E|---------------------------------------------------------------------------|

Repeat verse

Repeat Chorus

Bridge: (each chord strummed repeatedly) 
e|---------------------------------------------------------------------------|
B|---------------------------------------------------------------------------|
G|---------------------------------------------------------------------------|
D|--4----2----0--2----4----6----7----9----11----12----11----12--11---(Bass---|
A|--0----0----0--0----0----0----0----0----0-----0------0-----0---0---Plays)--|
E|---------------------------------------------------------------------------|

Repeat Chorus (x2) 

strum repeatedly
e|---------------------------------------------------------------------------|
B|---------------------------------------------------------------------------|
G|---------------------------------------------------------------------------|
D|--4----2----0--2-------x1----------------------------------------------------|
A|--0----0----0--0-----------------------------------------------------------|
E|---------------------------------------------------------------------------|

Outro:
e|---------------------------------------------------------------------------|
B|---------------------------------------------------------------------------|
G|---------------------------------------------------------------------------|
D|------0--2--0-------2--4--2-------0--2--0-------0--4--0--------------------|
A|----0-------------2-------------0-------------0----------------------------|
E|--0-------------2-------------0-------------0------------------------------|

Lyrics:

Lookin' up at the stars at night,
wondering when...
You'll discover I was tellin' the truth after all,
Tellin' the truth after all.

Wantin' to be with you tonight,
right there at you're side,
But I can't because I fucked up too many times,
fucked up too many times.

Chorus:
Well we were goin' so strong and it would last so long, 
or so I told myself every day,
but at the end of it all, we started to fall,
and you gave up right away.

Replayin' all those things you said,
over and over again,
Tryin' to understand how it got to that,
understand how it got to that.

Haunted by all the memories,
You've bestowed into my head,
Spendin' my time tryin' to pretend allright,
tryin' to pretend I'm alright.

Chorus repeat

(pause for bridge)

Chorus repeat (x2)


| /  slide up
| \  slide down
| h  hammer-on
| p  pull-off
| ~  vibrato
| +  harmonic
| x  Mute note
===============================================================================