Nonpoint - Any Advice Text Guitar Tab

Learn the song with the online tablature player
Band- Nonpoint
Song- Any Advice

Intro/chorus: with wah
------------------------------------------------------------------------------|
--0-0-0------0-0-0---0-0-0--0-0-0---------------------------------------------|
--4-4-4------6-6-6---7-7-7--3-3-3---------------------------------------------|
--x-x-x------x-x-x---x-x-x--x-x-x---------------------------------------------|
--2-2-2------4-4-4---5-5-5--1-1-1---------------------------------------------|
------------------------------------------------------------------------------|

verse
There's an acoustic guitar dubbed over this... playing the same thing
------------------------------------------------------------------------------|
------------------------------------------------------------------------------|
------------------------------------------------------------------------------|
-12p11-11-11-11-11-11-7-7-7-7-6-6-6-6-6-6-------------------------------------|
-12p11-11-11-11-11-11-7-7-7-7-6-6-6-6-6-6-------------------------------------|
-12p11-11-11-11-11-11-7-7-7-7-6-6-6-6-6-6-------------------------------------|

Prechorus
-------------------------------------------------------------------------------|
-------------------------------------------------------------------------------|
----------13-----------13------------------------------------------------------|
-----------x------------x------------------------------------------------------|
----------11-----------11------------------------------------------------------|
-12-0-0-0-----12-0-0-0---------------------------------------------------------|

2:12
------------------------------------------------------------------------------|
------------------------------------------------------------------------------|
------------------------------------------------------------------------------|
---------------------------12-12-12-12-12-------------------------------------|
---------------------------12-12-12-12-12-------------------------------------|
-12p11-11-11--12p11-11-11--12-12-12-12-12-------------------------------------|