Nonpoint - Rabia Text Guitar Tab

Learn the song with the online tablature player
Nonpoint - RAbia

By Felipe Luster....

Legend:

Intro

"Sem Distorção/ Without Distortion"

D------------------------------|
A-10-10-10-10-10-10------------|
F-10-10-10-10-10-10--10--------| 4X
C--------------------12--------|
G------------------------------|
C------------------------------|

"Com Distorção/ With Distortion"

D-------|
A-------|
F-------|
C--12/--|
G--12/--|
C--12/--|

Verse 3X

D---------------------------|
A---------------------------|
F---------------------------|
C----0---0-0-0-0---0-0-3-0--|
G----0---0-0-0-0---0-0-3-0--|
C----0---0-0-0-0---0-0-3-0--|

D----------------------|
A----------------------|
F----------------------|
C---0-0-0-0---0-0-3-0--|
G---0-0-0-0---0-0-3-0--|
C---0-0-0-0---0-0-3-0--|

D-----------------------------------------------------------|
A-----------------------------------------------------------|
F-----------------------------------------------------------|
C---0-0-0-0---0-0-3---0-0-2h3--0-0-7h8--0-0-5h7--0-0-3h5----|
G---0-0-0-0---0-0-3-----------------------------------------|
C---0-0-0-0---0-0-3-----------------------------------------|

Verse 3X

D---------------------------------------|
A---------------------------------------|
F---------------------------------------|
D---------------------------------------|
C-0-0-2h3--0-0-7h8--0-0-5h7--0-0-3h5----|
G---------------------------------------|
C---------------------------------------| 4X

REfrain 1
Repeat 2x

D------------------------------------------------------------|
A------------------------------------------------------------|
F---7*-------------------------------------------------------|
C-----0---0-0-3p0-0-3p0---0-0-3p0-0-3p0--0--5p6--------------|
G-----0---0-0-3p0-0-3p0---0-0-3p0-0-3p0--0--5p6--------------|
C-----0---0-0-3p0-0-3p0---0-0-3p0-0-3p0--0--5p6--------------|

D------------------------------------------------------------|
A------------------------------------------------------------|
F---7*-------------------------------------------------------|
C-----0---0-0-3p0-0-3p0---0-0-3p0-0---7-6--5p6---------------|
G-----0---0-0-3p0-0-3p0---0-0-3p0-0---7-6--5p6---------------|
C-----0---0-0-3p0-0-3p0---0-0-3p0-0---7-6--5p6---------------|

Outro

"Sem Distorção/ Without Distortion"

D------------------------------|
A-10-10-10-10-10-10------------|
F-10-10-10-10-10-10--10--------| 2X
C--------------------12--------|
G------------------------------|
C------------------------------|

"Com Distorção/ With Distortion"

D-------|
A-------|
F-------|
C--12/--|
G--12/--|
C--12/--|

Verse 3X

D---------------------------|
A---------------------------|
F---------------------------|
C----0---0-0-0-0---0-0-3-0--|
G----0---0-0-0-0---0-0-3-0--|
C----0---0-0-0-0---0-0-3-0--|

D----------------------|
A----------------------|
F----------------------|
C---0-0-0-0---0-0-3-0--|
G---0-0-0-0---0-0-3-0--|
C---0-0-0-0---0-0-3-0--|

D-----------------------------------------------------------|
A-----------------------------------------------------------|
F-----------------------------------------------------------|
C---0-0-0-0---0-0-3---0-0-2h3--0-0-7h8--0-0-5h7--0-0-3h5----|
G---0-0-0-0---0-0-3-----------------------------------------|
C---0-0-0-0---0-0-3-----------------------------------------|

Verse 3X

D---------------------------------------|
A---------------------------------------|
F---------------------------------------|
C-0-0-2h3--0-0-7h8--0-0-5h7--0-0-3h5----|
G---------------------------------------|
C---------------------------------------| 4X

REfrain 1

D------------------------------------------------------------|
A------------------------------------------------------------|
F---7*-------------------------------------------------------|
C-----0---0-0-3p0-0-3p0---0-0-3p0-0-3p0--0--5p6--------------|
G-----0---0-0-3p0-0-3p0---0-0-3p0-0-3p0--0--5p6--------------|
C-----0---0-0-3p0-0-3p0---0-0-3p0-0-3p0--0--5p6--------------|

D------------------------------------------------------------|
A------------------------------------------------------------|
F---7*-------------------------------------------------------|
C-----0---0-0-3p0-0-3p0---0-0-3p0-0---7-6--5p6---------------|
G-----0---0-0-3p0-0-3p0---0-0-3p0-0---7-6--5p6---------------|
C-----0---0-0-3p0-0-3p0---0-0-3p0-0---7-6--5p6---------------|2X

Refrain 2

D---------------------------------------|
A---------------------------------------|
F---------------------------------------|
C-0-XXx-0-XXX-0-XXX-0-------------------|
G-0-XXX-0-XXX-0-XXX-0------6------------|
C-0-XXX-0-XXX-0-XXX-0--5h6--------------|2x

D-----------------------------------------------------------|
A-----------------------------------------------------------|
F--10-----------10-----------10------------10---------------|
C--9------------9------------9-------------9----------------|
G--8------------8------------8-------------8-------6--------|
C-----4#-4#-4#-----4#-4#-4#------4#-4#-4#------5h6----------|

D---------------------------------------|
A---------------------------------------|
F---------------------------------------|
C-0-XXx-0-XXX-0-XXX-0-------------------|
G-0-XXX-0-XXX-0-XXX-0------6------------|
C-0-XXX-0-XXX-0-XXX-0--5h6--------------|

D-----------------------------------------------------------|
A-----------------------------------------------------------|
F--10-----------10-----------10------------10---------------|
C--9------------9------------9-------------9----------------|
G--8------------8------------8-------------8-------6--------|
C-----4#-4#-4#-----4#-4#-4#------4#-4#-4#------5h6----------|

D---------------------------------------|
A---------------------------------------|
F---------------------------------------|
C-0-XXx-0-XXX-0-XXX-0-------------------|
G-0-XXX-0-XXX-0-XXX-0------6------------|
C-0-XXX-0-XXX-0-XXX-0--5h6--------------|

"Com Distorção/ With Distortion"

D------------------------------|
A-10-10-10-10-10-10------------|
F-10-10-10-10-10-10--10--------| 4X
C--------------------12--------|
G------------------------------|
C------------------------------|

Riffs Básicos...! Os Riffs se Repetem na Musik è Só Vo6 Encaixarem Os Riffs Certos!

Ok?

Flwz!