Nonpoint - Shadow Text Guitar Tab

Learn the song with the online tablature player
Hopefully I got it - it sounds pretty damn close when I play.

Guitar 1 (Lead)
D|--------------------|---------777-101010-|--------------------|-----7-8-10-8-7---7-----------|
A|------888-777-------|-----888------------|------888-777-------|----------------8---8-7-8-7---|
F|--------------999---|--------------------|--------------999---|----------------------------9-|
C|-2-2----------------|-2-2----------------|-2-2----------------|-2-2--------------------------|
G|-2-2----------------|-2-2----------------|-2-2----------------|-2-2--------------------------|
C|-2-2----------------|-2-2----------------|-2-2----------------|-2-2--------------------------|

Guitar 2 (Rhythm)
D|--------------------|--------------------|--------------------|------------------------------|
A|--------------------|--------------------|--------------------|------------------------------|
F|--------------------|--------------------|--------------------|------------------------------|
C|-2-2----------------|-2-2----------------|-2-2----------------|-5-5-5--5--------4-4-4--4-----|
G|-2-2----------------|-2-2----------------|-2-2----------------|-5-5-5--3--------4-4-4--2-----|
C|-2-2----------------|-2-2----------------|-2-2----------------|-5-5-5-----------4-4-4--------|

Guitar 1 (Lead)
D|--------------------|---------777-101010-|--------------------|------------------------------|
A|------888-777-------|-----888------------|------888-777-------|----------8-----8-------------|
F|--------------999---|--------------------|--------------999---|------555---444---------------|
C|-2-2----------------|-2-2----------------|-2-2----------------|-2-2--------------------------|
G|-2-2----------------|-2-2----------------|-2-2----------------|-2-2--------------------------|
C|-2-2----------------|-2-2----------------|-2-2----------------|-2-2--------------------------|

Guitar 2 (Rhythm)
D|--------------------|--------------------|--------------------|------------------------------|
A|--------------------|--------------------|--------------------|------------------------------|
F|--------------------|--------------------|--------------------|------------------------------|
C|-2-2----------------|-2-2----------------|-2-2----------------|-5-5-5--5--------4-4-4--4-----|
G|-2-2----------------|-2-2----------------|-2-2----------------|-5-5-5--3--------4-4-4--2-----|
C|-2-2----------------|-2-2----------------|-2-2----------------|-5-5-5-----------4-4-4--------|

Hit me up if you have corrections, comments, etc.