Nonpoint - To The Pain Text Guitar Tab

Learn the song with the online tablature player
Intro
1||----0-0|----3-3|----0--|-------|-------|-------||
2||----3-3|----5-5|----3--|-------|-------|-------||
3||-------|-------|-------|-------|-------|-------||
4||-0-0---|-0-0---|-0-0---|-------|-------|-------||  2X
5||-0-0---|-0-0---|-0-0---|-------|-------|-------||
6||-0-0---|-0-0---|-0-0---|-------|-------|-------||
    . .     . .     . .

1||-------|-------|-------|-------|-------|------10-11p10||
2||-------|-------|-------|-------|-------|------10-10-10||
3||-------|-------|-------|-------|-------|--------------||
4||-------|-------|-------|-------|-------|--------------||
5||-------|-------|-------|-------|-------|--------------||
6||1p0----|1p0----|3p0-0--|1p0----|1p0-1p0|0-3p0---------||

1||-------|-------|-------|-------|-------|-------||
2||-5-5-5-|-------|-------|-------|-------|-------||
3||-------|-------|-------|-------|-------|-------||
4||-3-3-3-|-------|----3p2|-------|-------|-------||
5||-0-0-0-|5p3-0--|3h5----|-------|-------|-------||
6||-0-0-0-|-------|-------|-------|-------|-------||

1||-0-----|-------|-------|-------|-------|-------||
2||-0-----|-------|-------|-------|-------|-------||
3||-0-----|-------|-------|-------|-------|-------||
4||-3-----|-------|----3p0|-------|-------|-------||
5||-0-----|5p3-0--|3h5----|-------|-------|-------||
6||-0-----|-------|-------|-------|-------|-------||

1||-------|-------|-------|-------|-------|-------||
2||-------|-------|-------|-------|-------|-------||
3||-------|-------|-------|-7777--|-12-15-|-10----||
4||-7-3-5-|-2-2-3-|-0000--|-xxxx--|-xx-xx-|-x-----||
5||-7-3-5-|-2-2-3-|-0000--|-5555--|-12-13-|-8-----||
6||-7-3-5-|-2-2-3-|-0000--|-------|-------|-------||

Thats all I Got you can figure out the rest its simple