Norma Jean - Charatarantula Text Guitar Tab

Learn the song with the online tablature player
ok so unfortunetly i only have half the song from 2:37 to 3:53

\ =slide up
h =hammer on
p =pull off
x =plam muted

standard tunnig: e a d g b e

gtr 1:scottie henry
gtr2:chris day

e/---------------------------------------|
a/---------------------------------------|
d/---------------------------------------|
g/-------------------------------\ 12----|
b/-------------------------------\ 12----|
e/-------------------------------\ 12----|

this is plam muted
e/---------------------------------------|
a/---------------------------------------|
d/---------------------------------------|
g/---------------------------------------|
b/-x-xx----xxxx---x---xxxx---------------|
e/-x-xx----xxxx---x---xxxx---------------|

e/---------------------------------------|
a/---------------------------------------|
d/---------------------------------------|
g/-------------------------------\ 12----|
b/-------------------------------\ 12----|
e/-------------------------------\ 12----|

e/---------------------------------------|
a/---------------------------------------|
d/---------------------------------------|
g/---------------------------------------|
b/-x-xx----xxxx---x---xxxx---------------|
e/-x-xx----xxxx---x---xxxx---------------|

e/---------------------------------------|
a/---------------------------------------|
d/---------------------------------------|
g/-------------------------------\ 12----|
b/-------------------------------\ 12----|
e/-------------------------------\ 12----|

gtr 1 and 2
e/-------------------------------------------------|
a/-------------------------------------------------|
d/-------------------------------------------------|
g/-------------------------------------------------|
b/-------------------------------------------------|
e/-----0-3-4-0-7-6-0-5--0-3-4-0-7-6-0-5-   repeat--| 4x

gtr 2

e/----------------------------------------|
a/----------------------------------------|
d/----------------------------------------|
g/----------------------------------------|
b/---xx-2---xx-2-2-2----------------------|
e/---xx-2---xx-2-2-2----------------------|

gtr 1

e/----0-3-4-0-7-0-5---0-3-4-0-7-0-5--------|
a/-----------------------------------------|
d/-----------------------------------------|
g/-----------------------------------------|
b/-----------------------------------------|
e/-----------------------------------------|

gtr 2
e/----------------------------------------|
a/----------------------------------------|
d/----------------------------------------|
g/----------------------------------------|
b/---xx-2---xx-2-2-2----------------------|
e/---xx-2---xx-2-2-2----------------------|

gtr 1

e/----0-3-4-0-7-0-5---0-3-4-0-7-0-5--------|
a/-----------------------------------------|
d/-----------------------------------------|
g/-----------------------------------------|
b/-----------------------------------------|
e/-----------------------------------------|

gtr 2
e/----------------------------------------|
a/----------------------------------------|
d/----------------------------------------|
g/----------------------------------------|
b/---xx-2---xx-2-2-2----------------------|
e/---xx-2---xx-2-2-2----------------------|

gtr 1

e/----0-3-4-0-7-0-5---0-3-4-0-7-0-5--------|
a/-----------------------------------------|
d/-----------------------------------------|
g/-----------------------------------------|
b/-----------------------------------------|
e/-----------------------------------------|

gtr 2
e/----------------------------------------|
a/----------------------------------------|
d/----------------------------------------|
g/----------------------------------------|
b/---xx-2---xx-2-2-2----------------------|
e/---xx-2---xx-2-2-2----------------------|

gtr 1

e/--------------------------------------|
a/--------------------------------------|
d/--------------------------------------|
g/--------------------------------------|
b/--------------------------------------|
e/--0-3-4-0-7-0-5--0-3-4-0-7-0-5--------|

gtr 2
e/----------------------------------------|
a/----------------------------------------|
d/----------------------------------------|
g/----------------------------------------|
b/---xx-2---xx-2-2-2----------------------|
e/---xx-2---xx-2-2-2----------------------|

gtr 2           gtr 2 and 1 are playing at the same time
e/------------------------------------------|
a/------------------------------------------|
d/------------------------------------------|
g/------------------------------------------|
b/------------------------------------------|
e/---2-----x-x-x-x-x------------------------|

gtr 1

e/----0-3-4-0-7-0-5---0-3-4-0-7-0-5--------|
a/-----------------------------------------|
d/-----------------------------------------|
g/-----------------------------------------|
b/-----------------------------------------|
e/-----------------------------------------|

gtr 2
e/----------------------------------------|
a/----------------------------------------|
d/----------------------------------------|
g/----------------------------------------|
b/---xx-2---xx-2-2-2----------------------|
e/---xx-2---xx-2-2-2----------------------|

gtr 1

e/----0-3-4-0-7-0-5---0-3-4-0-7-0-5--------|
a/-----------------------------------------|
d/-----------------------------------------|
g/-----------------------------------------|
b/-----------------------------------------|
e/-----------------------------------------|

gtr 2
gtr 2 and 1 are playing at the same time,
e/-----------------------------------------|
a/-----------------------------------------|
d/-----------------------------------------|
g/-----------------------------------------|
b/-----------------------------------------|
e/--0-3-4-0-7-0-5--0-3-4-0-7-0-5-- repeat--| 2x

gtr 1

e/----0-3-4-0-7-0-5---0-3-4-0-7-0-5---------------|
a/------------------------------------------------|
d/------------------------------------------------|
g/------------------------------------------------|
b/------------------------------------------------|
e/--------------------------------------- repeat--| 3x