Norma Jean - Disconnectie Text Guitar Tab

Learn the song with the online tablature player
Norma jean, Disconnectie-The faithful vampire

drop Db

Done with two guitars but I'll tab it for one because if your any good
you'll play this easy song seemlessly
Drenched in dist. Mesa Dual rec./active EMG 81 Bridge
Gain8  Treb6  Mid4  Bass7

begin it
eb|-66666666666666666666666666666-|
Bb|-77777777777777777777777777777-|
Gb|-88888888888888888888888888888-|
Db|-88888888888888888888888888888-|start with a lot of feedback
Ab|-------------------------------|
Db|-------------------------------|

hit it
eb|-------------------------------------------------------------|
Bb|-------------------------------------------------------------|
Gb|-------------------------------------------------------------|
Db|-0-----------------------------0-----------------------------|
Ab|-0-----------------------------0-----------------------------|
Db|-0-----------------------------0-----------------------------|
      its taken me 50,000 seprate wreaks   to get here

eb|-------------------------------------------------------------|
Bb|-------------------------------------------------------------|
Gb|-------------------------------------------------------------|
Db|-8-----------------------------3-------------5---------------|
Ab|-8-----------------------------3-------------5---------------|
Db|-8-----------------------------3-------------5---------------|
      and I've learned                and I've learned absolutly...

Back to intro

hit it again
eb|-------------------------------------------------------------|
Bb|-------------------------------------------------------------|
Gb|-------------------------------------------------------------|
Db|-8-8-8-8-8-8-8-8-8-8-8-8-8-8-8--3-3-3-3-3-3-3--5-5-5-5-5-5-5-|
Ab|-8-8-8-8-8-8-8-8-8-8-8-8-8-8-8--3-3-3-3-3-3-3--5-5-5-5-5-5-5-|
Db|-8-8-8-8-8-8-8-8-8-8-8-8-8-8-8--3-3-3-3-3-3-3--5-5-5-5-5-5-5-|
 well I thought...

eb|-------------------------------------------------------------|
Bb|-------------------------------------------------------------|
Gb|-------------------------------------------------------------|
Db|-0-------------0/10-------------0--------------5\3-----------|
Ab|-0-------------0/10-------------0--------------3\1-----------|
Db|-0-------------0----------------0----------------------------|
     for me it....

eb|---------------------------------------|
Bb|---------------------------------------|
Gb|---------------------------------------|
Db|-0-0-0-0-0-0-0-0-0-0-0-0-0-0-0-00000-0-|
Ab|-0-0-0-0-0-0-0-0-0-0-0-0-0-0-0-00000-0-|
Db|-0-0-0-0-0-0-0-0-0-0-0-0-0-0-0-00000-0-|
    so I begin...

now calm it
eb|-------------------------------------------------------|
Bb|-------------------------------------------------------|
Gb|-14----------------------------------------------------|Sparatic struming
Db|-15------------14------------10-----------12-----------|next to bridge
Ab|-12------------12------------12-----------12-----------|do whatever sounds
Db|-12------------12------------12-----------12-----------|good to you

now drive it^

now end it
eb|-----------------------------|
Bb|-----------------------------|
Gb|-----------------------------|
Db|-0---0--0---7--0--0-000--7-7-|
Ab|-0---0--0---5--0--0-000--5-5-|
Db|-0---0--0------0--0-000------|

eb|----------------------------|
Bb|----------------------------|
Gb|----------------------------|
Db|-0------------0-------------|
Ab|-0----5/-8----0----5/-12----|
Db|-0------------0-------------|

You'd think more people would love this band...

You'd think more people would think...